Accordi Tab Ritmo Incubus Stellar (acustica)

Hai trovato gli accordi chords di una canzone ad orecchio e vorresti suggerirla? Oppure vuoi proporre la TAB per chitarra del tuo Riff preferito? il testo? Questo è il forum giusto! Anche per suggerimenti sul ritmo di una canzone. Ricordati di usare la funzione cerca...

Accordi Tab Ritmo Incubus Stellar (acustica)

Messaggiodi SoundOfDreams

Enciclopedia degli accordi per chitarra

per problemi chiedete pure.
Codice: Seleziona tutto
I have tabbed this one out by listening to the multiple live performances and i dont think there will be a better tab out there than this.

Verse
------0-----0---0----------------
------0-----0---0----------------
------9/11-11/6-6----------------
----9-9/11-11/6-6------6-6---6-7-
--0---------------4-4-----5------
---------------------------------

------0-----0---0----------------
------0-----0---0----------------
------9/11-11/6-6----------------
----9-9/11-11/6-6-----6-6-----6--
--0---------------4-4-----7-7----
---------------------------------
Go back and forth between those until Pre-chorus

Pre-chorus
---5555555----222222-------------
---5555555----222222-------------
---7777777----444444-------------
---7777777----444444-------------
---5555555----222222-------------
---5555555----222222-------------

Chorus
--00--00-------------------------
--00--00-------------------------
--22--22-------------------------
--22--22------6-6---6-7----------
--00--00--4-4-----5--------------
--00--00-------------------------

Post-chorus
------0-0------0-0---------------
------0-0------0-0---------------
------9/11-----9/6------do twice-
----9-9/11-----9/6---------------
--0------------------------------
---------------------------------

-Due the verse over again, but start with the opposite one you started with the first time.

-Then due Pre-chorus again.

Chorus is the same except at the end it does this
--00-00--------------------------
--00-00--------------------------
--22-22---66---------------------
--22-22---66-66-4-6-7------------
--00-00---44-66-4-6-7------------
--00-00---44-44-2-4-5------------

2nd Post-chorus
------------------------------------
------------------------------------
------------------------------------
------0-0---------0-0-----------0-0-
----7-----7-----7-----7-------5---5-
--5---------5-5---------5-/-3-----3-
Ultima modifica di SoundOfDreams su , modificato 1 volte in totale.


SoundOfDreams
 
Messaggi: 12638
Località: Villa Literno (Caserta)


Accordi Tab Ritmo Incubus Stellar (acustica)

Messaggiodi SoundOfDreams

appena posso metto video con accordi e tab


SoundOfDreams
 
Messaggi: 12638
Località: Villa Literno (Caserta)

Accordi Tab Ritmo Incubus Stellar (acustica)

Messaggiodi SoundOfDreams

Avete provato accordi e tab?


SoundOfDreams
 
Messaggi: 12638
Località: Villa Literno (Caserta)

Messaggiodi DevilOfSky

.... ok se questa è facile io sono Cameron Diaz


DevilOfSky
 
Messaggi: 233

Accordi Tab Ritmo Incubus Stellar (acustica)

Messaggiodi SoundOfDreams

Bhè.. solo qualche barrè.. ma nulla di grosso..
in una settimana.. ce la si fa...
l'intro poi lo impari in poco più che dieci minuti..


SoundOfDreams
 
Messaggi: 12638
Località: Villa Literno (Caserta)

Accordi Tab Ritmo Incubus Stellar (acustica)

Messaggiodi Carlo

oddio...a me sembra un po tanto semplificata e rallentata rispetto all'originale ;)


Carlo
 

Messaggiodi SoundOfDreams

esatto.. è semplificata .. cerco sempre di mettere tab più semplici rispetto ad altre.


SoundOfDreams
 
Messaggi: 12638
Località: Villa Literno (Caserta)

Messaggiodi DevilOfSky

quel 44-66-5-67 mi fa venire un inctus... non sono un esperto ma voglio riuscirci...

edit: piano piano riesco a farlo... nel video però dopo questo pezzo fa un accordo che non capisco che non c'è scritto... o forse non lo vedo...

--00--00-------------------------
--00--00-------------------------
--22--22-------------------------
--22--22------6-6---6-7----------
--00--00--4-4-----5--------------
--00--00-------------------------


DevilOfSky
 
Messaggi: 233

Messaggiodi DevilOfSky

haha che impedito che mi sembro... primi 10 minuti di esercitazione sulla canzone :!:


DevilOfSky
 
Messaggi: 233

Messaggiodi Dufresne

insisti... non è malaccio...ti devi sciogliere ;-)


Dufresne
 
Messaggi: 6166

Re: CANZONI SEMPLICI- Incubus: Stellar (acustica)

Messaggiodi Pez

Un principiante non ce la fa, farla suonare bene non è facile


Pez
 
Messaggi: 12

Re: CANZONI SEMPLICI- Incubus: Stellar (acustica)

Messaggiodi DIEGO95

sicuri che è facile?mi fido ??


...........................................................................................................................................................................
DIEGO95
 
Messaggi: 110
Località: a 20 km da TV...però ho origini friulane...

Accordi Tab Ritmo Incubus Stellar (acustica)

Messaggiodi SoundOfDreams

se la suoni con un ritmo meno veloce ce la fai


SoundOfDreams
 
Messaggi: 12638
Località: Villa Literno (Caserta)

Accordi Tab Ritmo Incubus Stellar (acustica)

Messaggiodi DIEGO95

ok provo accordi e tab


...........................................................................................................................................................................
DIEGO95
 
Messaggi: 110
Località: a 20 km da TV...però ho origini friulane...

Accordi Tab Ritmo Incubus Stellar (acustica)

Messaggiodi diomadre

DevilOfSky ha scritto:quel 44-66-5-67 mi fa venire un inctus...

INCTUS


Mandi
diomadre
 
Messaggi: 226
Località: Udine

Prossimo


Torna a Accordi TAB Riff testo chords - Studiare canzoni


Chi c’è in linea

Visitano il forum: Nessuno e 3 ospiti

croncron