Black Sabbath - Electric Funeral accordi e tab

Hai trovato gli accordi chords di una canzone ad orecchio e vorresti suggerirla? Oppure vuoi proporre la TAB per chitarra del tuo Riff preferito? il testo? Questo è il forum giusto! Anche per suggerimenti sul ritmo di una canzone. Ricordati di usare la funzione cerca...

Black Sabbath - Electric Funeral accordi e tab

Messaggiodi SoundOfDreams

Codice: Seleziona tutto
E||------------------------|-----------------------||---------------------|
B||------------------------|-----------------------||---------------------|
G||*-----------------------|----------------------*||*--------------------|
D||*-----------------------|----------------------*||*--------------------|
A||-------------2h-3--2~---|-----------------------||------------2~-------|
E||---0----0---------------|------0----2--3--2-----||---0-----------------|

                                                                    3x
---------------------|-----------------------|----------------------||
---------------------|-----------------------|----------------------||
---------------------|-----------------------|---------------------*||
---------------------|-----------------------|---------------------*||
--1~-------0~--------|--------------2~-------|--1--------0----------||
--------------3------|--0--0--0--0-----------|--------------3-------||

                                                3x                     
------------------------|-----------------------||---------------------|
------------------------|-----------------------||---------------------|
*-----------------------|----------------------*||*--------------------|
*-----------------------|----------------------*||*--------------------|
-------------2h-3--2~---|-----------------------||------------2~-------|
---0----0---------------|------0----2--3--2-----||---0-----------------|

                                                                    3x
---------------------|-----------------------|----------------------||
---------------------|-----------------------|----------------------||
---------------------|-----------------------|---------------------*||
---------------------|-----------------------|---------------------*||
--1~-------0~--------|--------------2~-------|--1--------0----------||
--------------3------|--0--0--0--0-----------|--------------3-------||

                                                3x                   
------------------------|-----------------------||-------------------|
------------------------|-----------------------||-------------------|
*-----------------------|----------------------*||-------------------|
*-----------------------|----------------------*||-------------------|
-------------2h-3--2~---|-----------------------||-------------------|
---0----0---------------|------0----2--3--2-----||--1----------------|
                                       
|---------------------------|--------------------------|
|---------------------------|--------------------------|
|*--------------------------|--------------------------|
|*--------------------------|--------------------------|
|---------------------------|--------------------------|
|---x--x--x--x--x--x--x--x--|--x--x--x--x--x--x--x--x--|

                         2x                           
-------------------------||--------------------------|
-------------------------||--------------------------|
------------------------*||--------------------------|
------------------------*||--------------------------|
--14------13------12-----||--------------------------|
--12------11------10-----||--x--x--x--x--x--x--x--x--|
                                                           
--------------------------|------------------------|------------------|
--------------------------|------------------------|------------------|
--------------------------|------------------------|------------------|
--------------------------|------------------------|------------------|
--------------------------|--14------13------12----|------------------|
--x--x--x--x--x--x--x--x--|--12------11------10----|------------------|
                                                           
|----------------12--12--12--12-12--|---------------12--12--12------||
|----------------12--12--12--12-12--|---------------12--12--12------||
|*---------------12--12--12--12-12--|---------------12--12--12-----*||
|*----------------------------------|------------------------------*||
|---14--12--14----------------------|--14--12--14-------------------||
|---12--10--12----------------------|--12--10--12-------------------||
                                             
-----------------------------|-------------------------------||
-----------------------------|-------------------------------||
*-------12---14---12---16----|-------12---14----16--12------*||
*--14------------------------|--14----------------------14--*||
-----------------------------|-------------------------------||
-----------------------------|-------------------------------||
                                                   
----------------12--12--12--12-12--|---------------12--12--12------||
----------------12--12--12--12-12--|---------------12--12--12------||
*---------------12--12--12--12-12--|---------------12--12--12-----*||
*----------------------------------|------------------------------*||
---14--12--14----------------------|--14--12--14-------------------||
---12--10--12----------------------|--12--10--12-------------------||
                                               
-----------------------------|-------------------------------||
-----------------------------|-------------------------------||
*-------12---14---12---16----|-------12---14----16--12------*||
*--14------------------------|--14----------------------14--*||
-----------------------------|-------------------------------||
-----------------------------|-------------------------------||

                        2x                               
---17--------17---------||------------------------------|
------------------------||------------------------------|
*----------------------*||--7-6-5-4-3-2-1-0-------------|
*----------------------*||------------------------------|
------------------------||------------------------------|
------------------------||------------------------------|

                                                 3x                     
|------------------------|-----------------------||---------------------|
|------------------------|-----------------------||---------------------|
|*-----------------------|----------------------*||*--------------------|
|*-----------------------|----------------------*||*--------------------|
|-------------2--3--2----|-----------------------||------------2~-------|
|---0----0---------------|------0----2--3--2-----||---0-----------------|

                                                                    3x
---------------------|-----------------------|----------------------||
---------------------|-----------------------|----------------------||
---------------------|-----------------------|---------------------*||
---------------------|-----------------------|---------------------*||
--1~-------0~--------|--------------2~-------|--1--------0----------||
--------------3------|--0--0--0--0-----------|--------------3-------||
                                                               
-------------------|--------------------------|--------------------------|
-------------------|--------------------------|--------------------------|
-------------------|--------------------------|--------------------------|
-------------------|--------------------------|--------------------------|
-------------------|--------------------------|--------------------------|
--1----------------|--x--x--x--x--x--x--x--x--|--x--x--x--x--x--x--x--x--|
                                                       
------------------------|------------------|--------------------|
------------------------|------------------|--------------------|
------------------------|------------------|--------------------|
------------------------|------------------|--14----------------|
--14------13------12----|------------------|--12----------------|
--12------11------10----|------------------|--------------------|
       
------------------||
------------------||
------------------||
------------------||
------------------||
------------------||

E' una bellissima canzone dei Black Sabbath.Semplice ma di sicuro effetto...
-gli asterischi indicano l'inizio è il termine di una sezione
Per difficoltà ditemi pure..
Io l'ho imparata in una mezz'oretta(nessuno ci crederàà) e chiedo ad un amica la videocamera così.. faccio un video

Domani vi fò anche la biografia.
Ultima modifica di SoundOfDreams su , modificato 1 volte in totale.


SoundOfDreams
 
Messaggi: 12638
Località: Villa Literno (Caserta)


Messaggiodi razielmaggots

Bella canzone, grande Luana. Aspettiamo il video :wink:


…Och runorna dansa till trollflöjtens läte…
razielmaggots
 
Messaggi: 854

Black Sabbath - Electric Funeral accordi e tab

Messaggiodi Dufresne

se volete il video del riff



a luana però viene meglio...


Dufresne
 
Messaggi: 6166

Black Sabbath - Electric Funeral accordi e tab

Messaggiodi SoundOfDreams

haahhahaha fighissima


SoundOfDreams
 
Messaggi: 12638
Località: Villa Literno (Caserta)

Messaggiodi iron maiden

le x cosa sono?


iron maiden
 
Messaggi: 751

Messaggiodi SoundOfDreams

le corde stoppate


SoundOfDreams
 
Messaggi: 12638
Località: Villa Literno (Caserta)

Black Sabbath - Electric Funeral accordi e tab

Messaggiodi iron maiden

e cosa serve in quel caso?


iron maiden
 
Messaggi: 751

Messaggiodi SoundOfDreams

non schiacci la corda ma appoggi delicatamente un dito in modo da avere un suono muto e chiuso ,caratterizzato solamente dal rumore metallico della corda.è usato spesso quando non si vuole dare un timbro sonoro ma solo un accenno di ritmo.
Ultima modifica di SoundOfDreams su , modificato 1 volte in totale.


SoundOfDreams
 
Messaggi: 12638
Località: Villa Literno (Caserta)

Black Sabbath - Electric Funeral accordi e tab

Messaggiodi iron maiden

grazie
e la h??


iron maiden
 
Messaggi: 751

Messaggiodi SoundOfDreams

hammer..
esempio:
2h-3
Penna il secondo tasto poi con l'indice (senza dare pennare) colpisci il terzo tasto.Cosi facendo sfrutto il suono dato precedentemente dal tasto due.


SoundOfDreams
 
Messaggi: 12638
Località: Villa Literno (Caserta)

Messaggiodi iron maiden

ma i quattro 0 cosa servono?


iron maiden
 
Messaggi: 751

Messaggiodi SoundOfDreams

è il mi basso che viene suonato a vuoto... ho capito.. domani mi metto in cam e ti fò vedere come si suona :/


SoundOfDreams
 
Messaggi: 12638
Località: Villa Literno (Caserta)

Black Sabbath - Electric Funeral accordi e tab

Messaggiodi iron maiden

mi sblocchi *_*

ma io parlavo che non riuscivo a inserirli nel ritmo.......


iron maiden
 
Messaggi: 751

Messaggiodi SoundOfDreams

Appunto.Ti dico il ritmo com'è cosi vedendo capisci meglio.
Se.. oh ringrazia che per scriverti srti chiarimenti me fai andà a letto tardi =P


SoundOfDreams
 
Messaggi: 12638
Località: Villa Literno (Caserta)

Black Sabbath - Electric Funeral accordi e tab

Messaggiodi iron maiden

buona notte e glassie :-D


iron maiden
 
Messaggi: 751

Prossimo


Torna a Accordi TAB Riff testo chords - Studiare canzoni


Chi c’è in linea

Visitano il forum: Nessuno e 0 ospiti