Guns n' roses - The godfather theme

Hai trovato gli accordi chords di una canzone ad orecchio e vorresti suggerirla? Oppure vuoi proporre la TAB per chitarra del tuo Riff preferito? il testo? Questo è il forum giusto! Anche per suggerimenti sul ritmo di una canzone. Ricordati di usare la funzione cerca...

Guns n' roses - The godfather theme

Messaggiodi mamo989



.....(Tono rauco e pacato).....

Vi farò un'offerta che non potrete rifiutare...

è con orgoglio e onore per la mi "patria" che vi offro questa tab..e acqua in bocca v'arraccumannu... :arrow:



Codice: Seleziona tutto
|----------------------------------------------------------------|
|-15---14-15-16--15-15---------15---14-15-16--15-15--------------|
|----------------------15---------------------------14-----------|
|----------------------------------------------------------------|
|----------------------------------------------------------------|
|----------------------------------------------------------------|
                         br        br      br     br
|------------------------/\--------/\-------------/\-------------|
|-15---14-15-18--15-14-15-(15)---14-(14)---/\---14-(14)----------|
|----------------------------------------14-(14)--------14-------|
|----------------------------------------------------------------|
|----------------------------------------------------------------|
|----------------------------------------------------------------|
Da qui il ritornello
|----10-13-12-10-13-10-12-10-------------------------------------|
|-10-------------------------11-13-10----------------------------|
|----------------------------------------------------------------|
|----------------------------------------------------------------|
|----------------------------------------------------------------|
|----------------------------------------------------------------|
                             s
|----10-13-12-10-13-10-12-10-------------------------------------|
|-10-------------------------/10-9-8-----------------------------|
|----------------------------------------------------------------|
|----------------------------------------------------------------|
|----------------------------------------------------------------|
|----------------------------------------------------------------|
  s        b            b/ s
|-----------/-------6-9-9----------------------------------------|
|----6-10-10-----/8---------------13-11-10-13-11-10-10-----------|
|-/7---------------------------10--------------------------------|
|--------------------------/12---------------------------11-12---|
|----------------------------------------------------------------|
|----------------------------------------------------------------|
              s
|-10-10-9-8-10/12-10-----------------------------------------10--|
|--------------------11-10----10-13-10-8----8-11-9-10-----10-----|
|----------------------------------------------------------------|
|----------------------------------------------------------------|
|----------------------------------------------------------------|
|----------------------------------------------------------------|
                                b   b   b
|-13^12^10--13^12^10--13^12^10---/---/--/--------------------------|
|------------------------------12--12--12-12-10-12-10-9-10-12-10-9-|
|------------------------------------------------------------------|
|------------------------------------------------------------------|
|------------------------------------------------------------------|
|------------------------------------------------------------------|

|-13-12-10-9-10-12-10-9----9-------------------------------------|
|-----------------------10---10-12-10-9----9----12---------------|
|---------------------------------------11---11----11-9----9-----|
|-------------------------------------------------------11---11--|
|----------------------------------------------------------------|
|----------------------------------------------------------------|
  s
|-----------------------------9-10-------------------------------|
|--------13-11-10-13-11-10-10------------------------------------|
|-----10---------------------------------------------------------|
|-/12------------------------------------------------------------|
|----------------------------------------------------------------|
|----------------------------------------------------------------|

:) Oltre ogni scherzo.....è la versione fatta dai Guns'n'roses che ha eseguito slash...
Simpaticissima!


"2007" - Squier Bullet Strato by Fender.
----------------------------------------------------
mamo989
 
Messaggi: 435


Messaggiodi SoundOfDreams

Io la so fare!! E' una strunzatella :)


SoundOfDreams
 
Messaggi: 12638
Località: Villa Literno (Caserta)

Messaggiodi Clapton

Siccome ho una classica, ed è difficile arrivare al quindicesimo tasto, posso partitre dal dodicesimo, e quindi fare il ritornello a partire dal settimo se non sbaglio, giusto?


Clapton
 
Messaggi: 1803
Località: Caltanissetta

Messaggiodi SoundOfDreams

Clapton ha scritto:Siccome ho una classica, ed è difficile arrivare al quindicesimo tasto, posso partitre dal dodicesimo, e quindi fare il ritornello a partire dal settimo se non sbaglio, giusto?
spe,ti do una versione che parte dal tasto 8
Codice: Seleziona tutto
solo guitar
please rate it..,I worked hard on it! :)



                                                                           
E||------------------|---------------8--11--|--10--8--11--8--10--8---------|
B||------------------|------------8---------|-------------------------9-11-|
G||------------------|----------------------|------------------------------|
D||------------------|----------------------|------------------------------|
A||------------------|----------------------|------------------------------|
E||------------------|----------------------|------------------------------|


                                                                             
----------------8--11--|--10--8--11--8--10--8--------|-------------------7--|
--8~---------8---------|-------------------------8-7-|--6~---------6--9-----|
-----------------------|-----------------------------|----------------------|
-----------------------|-----------------------------|----------------------|
-----------------------|-----------------------------|----------------------|
-----------------------|-----------------------------|----------------------|


                                                 
--10~---------------7--|--8~-----------------18--|
--------------6--9-----|-------------13--16------|
-----------------------|-------------------------|
-----------------------|-------------------------|
-----------------------|-------------------------|
-----------------------|-------------------------|


                                                         
--16--15----18-16-16--15--15--7--|--8~---------8--8--7--|
---------------------------------|----------------------|
---------------------------------|----------------------|
---------------------------------|----------------------|
---------------------------------|----------------------|
---------------------------------|----------------------|


                                                                       
--6--------10----8-----|-----------------------|----------------------|
--------------------9--|--8~---------8--11--8--|--6~---------6--9--7--|
-----------------------|-----------------------|----------------------|
-----------------------|-----------------------|----------------------|
-----------------------|-----------------------|----------------------|
-----------------------|-----------------------|----------------------|


                                                                               
-----------------8--11--|--10--8--11--8--10--8---------|----------------8--11--|
--8~-------x--8---------|-------------------------9-11-|--8----------8---------|
-----------x------------|------------------------------|-----------------------|
-----------x------------|------------------------------|-----------------------|
------------------------|------------------------------|-----------------------|
------------------------|------------------------------|-----------------------|


                                                                             
--10--8--11--8--10--8--------|-------------------7--|--10~---------------7--|
-------------------------8-7-|--6~---------6/-9-----|--------------6/-9-----|
-----------------------------|----------------------|-----------------------|
-----------------------------|----------------------|-----------------------|
-----------------------------|----------------------|-----------------------|
-----------------------------|----------------------|-----------------------|


                                                           
--8~---------8--11/-18--|--16p-15--18--16--16p-15----15-19-|
------------------------|----------------------------------|
------------------------|----------------------------------|
------------------------|----------------------------------|
------------------------|----------------------------------|
------------------------|----------------------------------|


                                                                             
--20----------------|------------------|------------------|------------------|
--------------------|------------------|------------------|------------------|
--------------------|------------------|------------------|------------------|
--------------------|------------------|------------------|------------------|
--------------------|------------------|------------------|------------------|
--------------------|------------------|------------------|------------------|


                                                                           
------------------|------------------|------------------|------------------|
------------------|------------------|------------------|------------------|
------------------|------------------|------------------|------------------|
------------------|------------------|------------------|------------------|
------------------|------------------|------------------|------------------|
------------------|------------------|------------------|------------------|


                                                                     
------------8--8--7--|--6--------10----8-----|-----------------------|
---------------------|--------------------9--|--8~---------8--11--8--|
---------------------|-----------------------|-----------------------|
---------------------|-----------------------|-----------------------|
---------------------|-----------------------|-----------------------|
---------------------|-----------------------|-----------------------|


                                                                               
----------------------|-----------------8--11--|--10--8--11--8--10--8---------|
--6~---------6--9--7--|--8~----------8---------|-------------------------9-11-|
----------------------|-----------x------------|------------------------------|
----------------------|------------------------|------------------------------|
----------------------|------------------------|------------------------------|
----------------------|------------------------|------------------------------|


                                                                             
-----------------8--11--|--10--8--11--8--10--8--------|-------------------7--|
--8~----------8---------|-------------------------8-7-|--6~---------6/-9-----|
-----------x------------|-----------------------------|----------------------|
-----------x------------|-----------------------------|----------------------|
-----------x------------|-----------------------------|----------------------|
------------------------|-----------------------------|----------------------|


                                                 
--10----------------7--|--7b---------8--11--18--|
--------------6/-9-----|------------------------|
-----------------------|------------------------|
-----------------------|------------------------|
-----------------------|------------------------|
-----------------------|------------------------|


                                                                           
--16--15--18--16--16--15--15--19--|--19b---------------|------------------||
----------------------------------|--------------------|------------------||
----------------------------------|--------------------|------------------||
----------------------------------|--------------------|------------------||
----------------------------------|--------------------|------------------||
----------------------------------|--------------------|------------------||



La parte finale non farla che cmq su classica è difficile e sgradevole
Ultima modifica di SoundOfDreams su , modificato 1 volte in totale.


SoundOfDreams
 
Messaggi: 12638
Località: Villa Literno (Caserta)

Messaggiodi Clapton

SoundOfDreams ha scritto:
Clapton ha scritto:Siccome ho una classica, ed è difficile arrivare al quindicesimo tasto, posso partitre dal dodicesimo, e quindi fare il ritornello a partire dal settimo se non sbaglio, giusto?
spe,ti do una versione che parte dal tasto 9

Ok aspetto!


Clapton
 
Messaggi: 1803
Località: Caltanissetta

Messaggiodi SoundOfDreams

Postata =)


SoundOfDreams
 
Messaggi: 12638
Località: Villa Literno (Caserta)

Messaggiodi SoundOfDreams

Conoscete la versione di parigi 92? Se a qualcuno interessa posto la tab!


SoundOfDreams
 
Messaggi: 12638
Località: Villa Literno (Caserta)

Messaggiodi Clapton

SoundOfDreams ha scritto:Conoscete la versione di parigi 92? Se a qualcuno interessa posto la tab!

Grazie Sound! :wink:
Qual'è la versione di Parigi 92?
Postala pure sono curioso!


Clapton
 
Messaggi: 1803
Località: Caltanissetta

Messaggiodi Clapton

Sound ho visto bene la tab che hai postato prima, e in alcuni punti devo arrivare al tasto 18 :o impossibile con la classica! Forse è meglio che scendo di tonalità la tab che era già postata, come dicevo io? Se si, i tasti che ho indicato nel mio primo messaggio sono giusti?


Clapton
 
Messaggi: 1803
Località: Caltanissetta

Messaggiodi SoundOfDreams

Clapton ha scritto:Sound ho visto bene la tab che hai postato prima, e in alcuni punti devo arrivare al tasto 18 :o impossibile con la classica! Forse è meglio che scendo di tonalità la tab che era già postata, come dicevo io? Se si, i tasti che ho indicato nel mio primo messaggio sono giusti?
e ma praticamente quella è una parte di assolo che fa slash con l'elettrica. per questo ti ho detto di non prestare attenzione a quella parte


SoundOfDreams
 
Messaggi: 12638
Località: Villa Literno (Caserta)

Messaggiodi Clapton

SoundOfDreams ha scritto:
Clapton ha scritto:Sound ho visto bene la tab che hai postato prima, e in alcuni punti devo arrivare al tasto 18 :o impossibile con la classica! Forse è meglio che scendo di tonalità la tab che era già postata, come dicevo io? Se si, i tasti che ho indicato nel mio primo messaggio sono giusti?
e ma praticamente quella è una parte di assolo che fa slash con l'elettrica. per questo ti ho detto di non prestare attenzione a quella parte

Scusa non avevo letto bene infondo al messaggio :oops:


Clapton
 
Messaggi: 1803
Località: Caltanissetta

Messaggiodi SoundOfDreams

La versione di Mamo mi sono accortia sia quella versione live di parigi però è sballata perchè mancano i simboli come il vibrato..
eccola cmq
Codice: Seleziona tutto
Slash
                                                                             
D#||--------------------------|------------------------|--------------------|
A#||--15~-------14--15--16~---|--15--15----------------|----------15~-------|
F#||--------------------------|------------15~---------|--------------------|
C#||--------------------------|------------------------|--------------------|
G#||--------------------------|------------------------|--------------------|
D#||--------------------------|------------------------|--------------------|


                                                                             
------------------------------|------------------|--------------------------|
--14--15--16~---15--15--------|------------------|--15~-------14--15--18~---|
--------------------------14~-|------------------|--------------------------|
------------------------------|------------------|--------------------------|
------------------------------|------------------|--------------------------|
------------------------------|------------------|--------------------------|


                                                                           
--------------------------|----------------------|----------------10--13--|
--15--14~---15~-----------|----14~---------------|------------10----------|
--------------------15~---|--------------14~-----|------------------------|
--------------------------|----------------------|------------------------|
--------------------------|----------------------|------------------------|
--------------------------|----------------------|------------------------|


                                                             
--12--10--13--10--12--10----------|------------------10--13--|
----------------------------11-13-|--10~---------10----------|
----------------------------------|--------------------------|
----------------------------------|--------------------------|
----------------------------------|--------------------------|
----------------------------------|--------------------------|


                                                         
--12--10--13--10--12--10--------|----------------6--10--|
---------------------------10-9-|--8~---------8---------|
--------------------------------|-----------------------|
--------------------------------|-----------------------|
--------------------------------|-----------------------|
--------------------------------|-----------------------|


                                                 
--10~------------6--9--|--9~--------------------|
--------------8--------|-----------------8--10--|
-----------------------|-------------10---------|
-----------------------|------------------------|
-----------------------|------------------------|
-----------------------|------------------------|


                                                         
--------------------------------|-------------10--10--9--|
--10r-10r--10r10r10-10----6-----|------------------------|
-----------------------------6--|--7~--------------------|
--------------------------------|------------------------|
--------------------------------|------------------------|
--------------------------------|------------------------|


                                                         
--8--------10/12---10------|--------------------5--8--5--|
-----------------------11--|--10~---10~-10~-10~----------|
---------------------------|-----------------------------|
---------------------------|-----------------------------|
---------------------------|-----------------------------|
---------------------------|-----------------------------|


                                                   
----------------6-----|------------------10--13--||
--8~---------8-----9--|--10~---------10----------||
----------------------|--------------------------||
----------------------|--------------------------||
----------------------|--------------------------||
----------------------|--------------------------||




SoundOfDreams
 
Messaggi: 12638
Località: Villa Literno (Caserta)

Messaggiodi Mr. D

Molto carina, Grazie Mamo e Sound :)


Mr. D
 
Messaggi: 1869
Località: MI

Messaggiodi TriS

bella serviva anche a me!


TriS
 
Messaggi: 174
Località: CATANIA

Messaggiodi dav88

SoundOfDreams ha scritto:
Clapton ha scritto:Siccome ho una classica, ed è difficile arrivare al quindicesimo tasto, posso partitre dal dodicesimo, e quindi fare il ritornello a partire dal settimo se non sbaglio, giusto?
spe,ti do una versione che parte dal tasto 8
Codice: Seleziona tutto
solo guitar
please rate it..,I worked hard on it! :)



                                                                           
E||------------------|---------------8--11--|--10--8--11--8--10--8---------|
B||------------------|------------8---------|-------------------------9-11-|
G||------------------|----------------------|------------------------------|
D||------------------|----------------------|------------------------------|
A||------------------|----------------------|------------------------------|
E||------------------|----------------------|------------------------------|


                                                                             
----------------8--11--|--10--8--11--8--10--8--------|-------------------7--|
--8~---------8---------|-------------------------8-7-|--6~---------6--9-----|
-----------------------|-----------------------------|----------------------|
-----------------------|-----------------------------|----------------------|
-----------------------|-----------------------------|----------------------|
-----------------------|-----------------------------|----------------------|


                                                 
--10~---------------7--|--8~-----------------18--|
--------------6--9-----|-------------13--16------|
-----------------------|-------------------------|
-----------------------|-------------------------|
-----------------------|-------------------------|
-----------------------|-------------------------|


                                                         
--16--15----18-16-16--15--15--7--|--8~---------8--8--7--|
---------------------------------|----------------------|
---------------------------------|----------------------|
---------------------------------|----------------------|
---------------------------------|----------------------|
---------------------------------|----------------------|


                                                                       
--6--------10----8-----|-----------------------|----------------------|
--------------------9--|--8~---------8--11--8--|--6~---------6--9--7--|
-----------------------|-----------------------|----------------------|
-----------------------|-----------------------|----------------------|
-----------------------|-----------------------|----------------------|
-----------------------|-----------------------|----------------------|


                                                                               
-----------------8--11--|--10--8--11--8--10--8---------|----------------8--11--|
--8~-------x--8---------|-------------------------9-11-|--8----------8---------|
-----------x------------|------------------------------|-----------------------|
-----------x------------|------------------------------|-----------------------|
------------------------|------------------------------|-----------------------|
------------------------|------------------------------|-----------------------|


                                                                             
--10--8--11--8--10--8--------|-------------------7--|--10~---------------7--|
-------------------------8-7-|--6~---------6/-9-----|--------------6/-9-----|
-----------------------------|----------------------|-----------------------|
-----------------------------|----------------------|-----------------------|
-----------------------------|----------------------|-----------------------|
-----------------------------|----------------------|-----------------------|


                                                           
--8~---------8--11/-18--|--16p-15--18--16--16p-15----15-19-|
------------------------|----------------------------------|
------------------------|----------------------------------|
------------------------|----------------------------------|
------------------------|----------------------------------|
------------------------|----------------------------------|


                                                                             
--20----------------|------------------|------------------|------------------|
--------------------|------------------|------------------|------------------|
--------------------|------------------|------------------|------------------|
--------------------|------------------|------------------|------------------|
--------------------|------------------|------------------|------------------|
--------------------|------------------|------------------|------------------|


                                                                           
------------------|------------------|------------------|------------------|
------------------|------------------|------------------|------------------|
------------------|------------------|------------------|------------------|
------------------|------------------|------------------|------------------|
------------------|------------------|------------------|------------------|
------------------|------------------|------------------|------------------|


                                                                     
------------8--8--7--|--6--------10----8-----|-----------------------|
---------------------|--------------------9--|--8~---------8--11--8--|
---------------------|-----------------------|-----------------------|
---------------------|-----------------------|-----------------------|
---------------------|-----------------------|-----------------------|
---------------------|-----------------------|-----------------------|


                                                                               
----------------------|-----------------8--11--|--10--8--11--8--10--8---------|
--6~---------6--9--7--|--8~----------8---------|-------------------------9-11-|
----------------------|-----------x------------|------------------------------|
----------------------|------------------------|------------------------------|
----------------------|------------------------|------------------------------|
----------------------|------------------------|------------------------------|


                                                                             
-----------------8--11--|--10--8--11--8--10--8--------|-------------------7--|
--8~----------8---------|-------------------------8-7-|--6~---------6/-9-----|
-----------x------------|-----------------------------|----------------------|
-----------x------------|-----------------------------|----------------------|
-----------x------------|-----------------------------|----------------------|
------------------------|-----------------------------|----------------------|


                                                 
--10----------------7--|--7b---------8--11--18--|
--------------6/-9-----|------------------------|
-----------------------|------------------------|
-----------------------|------------------------|
-----------------------|------------------------|
-----------------------|------------------------|


                                                                           
--16--15--18--16--16--15--15--19--|--19b---------------|------------------||
----------------------------------|--------------------|------------------||
----------------------------------|--------------------|------------------||
----------------------------------|--------------------|------------------||
----------------------------------|--------------------|------------------||
----------------------------------|--------------------|------------------||



La parte finale non farla che cmq su classica è difficile e sgradevole


ci sono riuscito! la so fare tutta con l' acustica. sono soddisfatto, la ricordo tutta e la trovo fantastica! grazie 1000

Grandissimo Slash!!!!!


dav88
 
Messaggi: 460

Prossimo


Torna a Accordi TAB Riff testo chords - Studiare canzoni


Chi c’è in linea

Visitano il forum: Nessuno e 4 ospiti