La Migliore Chitarra per Cominciare? Da sempre suggerita sul sito ChitarraDaSpiaggia

Sei qui: Home CDS - Canzoni CDS - Hey Joe - Jimi Hendrix Accordi
Il pezzo cantato piuttosto semplice, sotto trovate gli accordi chords (si ripetono per tutta la canzone)

A lato invece il video tutorial del riff iniziale, spiegato lentamente e quindi fattibile anche per chi ancora non suona proprio come jimi :-)
Buona visione e buon divertimento

Do > Sol >>>>>>>> Re >>>> La >>>>>> Mi Mi7
Hey Joe where ya'goin' with that gun in your hand?

>>>>>> Do >>>>>>>> Sol Re >>>>> La >>>>> Mi >>>>>> Mi7
I said hey Joe where ya goin' with that gun in your hand?

Do >>>>>>> Sol >>>>>>>>> Re >>>> La >>> Mi >> Mi7
I'm goin' out to find my woman now she's been runnin' round with some other man
Do >>>>>>>>> Sol >>>>>>>>>>> Re >>>>>> La >>>>>Mi Mi7
I said I'm goin' out to find my woman now she's been runnin' 'round with some other man

A lato invece il video dell'esecuzione completa di tablatura

Ricordate che se avete problemi chords di qualsiasi tipo c' il FORUM CDS
Hey Joe - Jimi Hendrix Accordi


Ecco la TAB:

Hey Joe (Intro e strofa) dell'utente micki

E----0-----0-----------------0-----------------------------0------------------
B----3s5--3-----------------0-----------------------------0------------------
G--------------4s2--0-----1-------------------------------1------------------
D-------------------------2----------------------------------------------0-----0--
A---------------------------------4s5----5----4---0s2-----------0s2--0s2---0--
E----------------------0-----------------5----4----------0---------------------

E-------0--------3--------2--------------0------------------0------------------
B-------1--------3--------3--------------0------------------0------------------
G-------0---0----0-----2----2-2---------1------------------1------------------
D-----2--------0-----0------2-2---0---2---------0---0---2---------0-----0-----
A---3------------------------0---4-----------0s2---2-----------0s2---0s2---0---
E-------------3-----------------------0------------------0----------------------

Consigli per gli Acquisti


Partner CDS

Acquari Low Cost

Contatti

Per conttatarmi puoi scrivermi qui: andreacatarsi77(chiocciola)gmail.com


2005-2020 Copyright Chitarradaspiaggia.com - Assolutamente vietata la riproduzione anche solo parziale dei contenuti del sito se non attraverso esplicito consenso dell'autore