La Migliore Chitarra per Cominciare? Da sempre suggerita sul sito ChitarraDaSpiaggia

Sei qui: Home CDS - Canzoni Da Spiaggia - Purple Haze - Hendrix


Un tutorial per imparare a fare il bellissimo riff di Purple Haze di Jimi Hendrix.

Uno dei tanti casi probabilmente in cui il riff di chitarra a dare origine alla canzone, ad ispirare il testo, la melodia e lo sviluppo in generale del pezzo.
Infatti Jimi trov prima il riff, solo successivamente decise di trasformarlo in una canzone vera e propria affiancandoci un testo.

Ricordate che se avete problemi di qualsiasi tipo c' il FORUM CDS

A tutorial to learn how to make beautiful riff of Purple Haze by Jimi Hendrix.

Probably one of the many cases in which the guitar riffs that gave rise to the song chords.

In fact, Jimi found the first riff, only later decided to turn it into a real song affiancandoci text.

Prime strofe tab dall'utente zarty

Tablature explanation
---------------------
B Full Bend Here is a little beauty from this kind of GOD who
b 1/2 Bend never die (we always keep is soul in our heart).
bb 1/4 Bend
~~~~~ Tremolo
^(#) Bend to (#)
/ Slide up
\ Slide down
h Hammer-on
p Pull-off
(#) Ghost note
% Rest

Purple Haze by Jimi 'the dead GOD' Hendrix
.............................................................................~~~~~~~.........~~~~~~~~~~~
E |-------------------------|----------------------------|-------------------------|------------------------|
B |-------------------------|----------------------------|----------8b-------------|------------------------|
G |-------------------------|----------------------------|-------7-----------------|------------------------|
D |-----------8--------8----|--------------%-------------|---/9--------7--------(7)|--5---------------------|
A |-------------------------|----------------------------|-------------------------|-----5-----5/7----------|
E |------6--------6---------|----------------------------|-------------------------|--------0---------------|

................~~~~~~~~~~~~~.............~~~~~~~~~~.............~~~~~~~~~~.............~~~~~~
E |-------------------------|---------------------------|-------------------------|-------------------------|
B |--------------8b---------|---------------------------|-------------------------|-------------------------|
G |----------7--------------|---------------------------|-------------------------|-------------------------|
D |----/9------------7------|-(7)\/5--------------------|--------5---7---7B---5---|-------5-----------------|
A |-------------------------|----------5-------5/7------|--5/7--------------------|-----------0-----3-----0-|
E |-------------------------|--------------0------------|-------------------------|--------------0----------|

.......................~~~~~~~~....................~~~~~~~~~~~
E |-------------------------|----------------------------|-------------------------|------------------------|
B |-------------------------|----------------------------|-------------------------|------------------------|
G |-------------------------|------------------7---7--9--|-------0-----------------|------------------------|
D |--------5--7B----5h7-(7)-|-----5-------/9-------------|-------------------------|------------------------|
A |---5/7-------------------|---------5------------------|-------------------------|------------------------|
E |-------------------------|----------------------------|-------------15\---------|------------------------|

Consigli per gli Acquisti


Partner CDS

Acquari Low Cost

Contatti

Per conttatarmi puoi scrivermi qui: andreacatarsi77(chiocciola)gmail.com


2005-2020 Copyright Chitarradaspiaggia.com - Assolutamente vietata la riproduzione anche solo parziale dei contenuti del sito se non attraverso esplicito consenso dell'autore