Fur Elise - Beethoven

Hai trovato gli accordi chords di una canzone ad orecchio e vorresti suggerirla? Oppure vuoi proporre la TAB per chitarra del tuo Riff preferito? il testo? Questo è il forum giusto! Anche per suggerimenti sul ritmo di una canzone. Ricordati di usare la funzione cerca...

Fur Elise - Beethoven

Messaggiodi xfree

ecco la tab:

Codice: Seleziona tutto
Fur Elise by Beethoven


|-7--6--7--6--7------------------------------------------
|-------------------7--10--8--------------7--------7--8---
|-------------------------------9--------9--------8---------
|--------------------------------------9------------------
|-----------------------------------7---------------------- 
|----------------------------------------------7--------------


|-7--6--7--6--7-----------------------------------------|
|-------------------7-10-8----------------7------8-7----|
|-----------------------------9---------9---------------9-|
|-------------------------------------9--------------------|
|----------------------------------7----------------------|
|---------------------------------------------7-----------|



|------------7-7-8-7----------7------------------------------------------------------|
|----8-10-------------10-10-----10-8-8-10-8-7-----------------------------------|
|-9-----------------------------------------------------------------------------------|
|-----------------------------------------------------8-8-9-8-9-8-9-8---------|
|---------------------------------------------------------------------------------------|
|-------------------------------------------------------------------------7-6-7-6-7-6-|



Guitar I
E|-------------------------------------------------------------------------|
B|-12--11--12--11--12--------------------------------------------------|
G|-------------------------11-14-12-------------------------------------|
D|----------------------------------------14tremolo13------------------|
A|-------------------------------------------------------------------------|
E|-------------------------------------------------------------------------|
xfree
Musicista embrione
Musicista embrione
 
Messaggi: 3


Re: Fur Elise - Beethoven

Messaggiodi Clapton

Raga se avete la tab completa la postate per favore? L'ho persa la mia XD
Clapton
Musicista guru
Musicista guru
 
Messaggi: 1803
Località: Caltanissetta



Torna a Accordi TAB Riff testo chords - Studiare canzoni


Chi c’è in linea

Visitano il forum: Nessuno e 10 ospiti