Accordi tab ritmo Riff Chuck Berry - Johnny b goode

Hai trovato gli accordi chords di una canzone ad orecchio e vorresti suggerirla? Oppure vuoi proporre la TAB per chitarra del tuo Riff preferito? il testo? Questo è il forum giusto! Anche per suggerimenti sul ritmo di una canzone. Ricordati di usare la funzione cerca...

Accordi tab ritmo Riff Chuck Berry - Johnny b goode

Messaggiodi /giordi/5/



vorrei imparare a fare il solista di questa canzone formidabile, ho trovato della tab ma c'è un problema: sono troppo complesse, quindi vorrei avere una tab più facile da imparare ......


/giordi/5/
 
Messaggi: 339


Messaggiodi lorenzo-giudici




ho trovato questa di Chuck Berry...
Guitar Solo

|-7-7-7-7-7---------|-7-7-7-7-7---------|
|-7-7-7-7-7-9-------|-7-7-7-7-7-9-------|
|-----------9-7h8---|-----------9-6h8-8-|
|-----------------9-|-----------------9-|
|-------------------|-----------------9-|
|-------------------|-------------------|



|-7---------7---------|-7---7---7---------|
|-7-9---7---7-9---7---|-7---7---7-----7---|
|---9-7h8-----9-7h8---|-------9---9-6h8---|
|---------9---------9-|-----------------9-|
|---------9---------9-|-------------------|
|---------------------|-------------------|



|-----------7------9-7-|------7-----------7--7--|
|-------------10-------|-10-9-7---------7-7-(7)-|
|---10s11--------------|--------9-7h8-8---------|
|----------------------|------------------------|
|----------------------|------------------------|
|----------------------|------------------------|



|-7-------7--7---7---7--|-7-------7---------|
|---9-7---7-(7)-(7)-(7)-|---9-7---7-9-7-----|
|-------8---------------|-------8-------8---|
|-----------------------|-------------------|
|-----------------------|-------------------|
|-----------------------|-------------------|



|-7-7-7-7-7---------|-----------------------------------------------|
|-7-7-7-7-7-9-------|---9b10-(10)--9b10-(10)--9b10-(10)--9b10==(10)r|
|-----------9-7h8---|---9b11-(11)--9b11-(11)--9b11-(11)--9b11==(11)r|
|-----------------9-|-----------------------------------------------|
|-------------------|-----------------------------------------------|
|-------------------|-----------------------------------------------|



|--------------------|------------||
|-(9)-7----9---7-----|------------||
|-(9)-8----9-7h8-----|-8----------||
|----------------9---|-9----------||
|--------------------|-9----------||
|--------------------|------------||



|-7-7-7-7-7---------|-7-7-7-7-7---------|
|-7-7-7-7-7-9-------|-7-7-7-7-7-9---7---|
|-----------9-7h8---|-----------9-7h8-8-|
|-----------------9-|-----------------9-|
|-------------------|-------------------|
|-------------------|-------------------|



|-7---------7---------|-7---------7----------|
|-7-9---7---7-9---7---|-7-9---7---7----------|
|---9-7h8-----9-7h8-8-|---9-7h8-----9-7h8-8--|
|---------9---------9-|---------9---------9--|
|---------------------|-------9--------------|
|---------------------|----------------------|



|---------------7-------------7-|------------7-------------7------------|
|----9b10-(10)--7-9b10-(10)---7-|-9b10-(10)--7-9b10-(10)---7-9b10-(10)--|
|----9b11-(11)----9b11-(11)-----|-9b11-(11)----9b11-(11)-----9b11-(11)--|
|-------------------------------|---------------------------------------|
|-------------------------------|---------------------------------------|
|-------------------------------|---------------------------------------|



|-7-------------7-------------7-|------------7-------------7-7-7--|
|-7--9b10-(10)--7-9b10-(10)---7-|-9b10-(10)--7-9b10-(10)---7-7-7--|
|----9b11-(11)----9b11-(11)-----|-9b11-(11)----9b11-(11)----------|
|-------------------------------|---------------------------------|
|-------------------------------|---------------------------------|
|-------------------------------|---------------------------------|



|-10b11-(111)-7-9-7-------------|
|------------7-7-7-10-9---7-----|
|------------------10-9-7h8-----|
|---------------------------(9)-|
|-------------------------------|
|-------------------------------|


D.S.S. al Dbl. Coda
|----------------------------------------------|----7---7-7-------|------------||
|------------7------------7------------7-------|----7---7-7-9---7-|------------||
|-10b11-(11)---10b11-(11)---10b11-(11)---9-7h8-|------------9-7h8-|------------||
|----------------------------------------------|-x----------------|-9----------||
|----------------------------------------------|------------------|------------||
|----------------------------------------------|------------------|------------||


"Sono sepolto fino al collo dalle mie contraddizioni. Sono il parassita di me stesso. Non ho bisogno di qualcuno che mi ospiti. Semmai hai bisogno di qualcosa ti pego non esitare a chiedere prima a qualqun altro"
Kurt Cobain
lorenzo-giudici
 
Messaggi: 372

Messaggiodi /giordi/5/

grazie!!! ma c'è un altro problema: non riesco a capire cosa vuol dire es.

---10h12---
oppure

---10b13----

!!!!! :cry:


/giordi/5/
 
Messaggi: 339

Messaggiodi Ally83

guarda qualcuno l'aveva già spiegato ma momentaneamente non lo trovo così te lo spiego io...
h sta per hammer on e p sta per puller off(o qualcosa del genere :lol: )
il primo serve per passare da una nota più bassa a una più alta
il secondo viceversa
queste due tecniche servono per poter suonare delle note senza dare la pennata..cioè con il solo ausilio della mano sinistra cioè:

ne tuo caso 10h12
qui tu devi suonare con il plettro la corda al decimo tasto e poi la corda sul dodicesimo non la suoni con il plettro ma premendo in modo deciso e secco la corda.

se dovessi trovare 12p10 è il contrario
ti faccio un esempio....se no non riesco a spiegarmi bene
per fare 12p10 io farei cosi....schiaccio con l'indice sul decimo e con l'anulare il dodicesimo...suono con il plettro la corda(quindi mi esce la nota de 12°) poi tolgo l'anulare ma tengo sempre l'indice e così la nota che esce è quella del 10° però facendo questa operazione ho evitato una pennata capito? cioè ho suonato due note con una pennata sola.

per quanto riguarda la b credo sia il bending...la tecnica con la quale tiri le corde verso l'alto o il basso...ma non ne sono per niente sicuro quindi ti consiglio di chiedere a qualcuno più esperto...spero di essere stato chiaro...ciao


Ally83
 
Messaggi: 61

Messaggiodi rufus89

si la b dovrebbe essere il bending... in questo caso bisogna suonare il tasto 10 tirando la corda fino a farla arrivare alla tonalità del 13, almeno credo... cmq aspettiamo zio never per la conferma! :lol:


"In ogni conflitto le manovre regolari portano allo scontro, e quelle imprevedibili alla vittoria." (Sun Tzu - L'arte della guerra)

Accordi e tab Asaf Avidan
rufus89
 
Messaggi: 1002
Località: Latina

Accordi tab ritmo Riff Chuck Berry - Johnny b goode

Messaggiodi klp

Il modo più semplice per impararla è installare un programma come Guitar Pro 6 e scaricarti la tab.... almeno impari il tempo e "senti" come gira la canzone.


klp
 
Messaggi: 135
Località: Camaiore (LU)

Accordi tab ritmo Riff Chuck Berry - Johnny b goode

Messaggiodi darkred90

ciao chitarristi anke io sto per diventarlo anke se ora sono solo uno pseudo kitarrista...cmq vi volevo kiedere la cortesia di indicarmi un sito dove poter predere gli accordi per la canzone johnny be goode tonight di chuck berry. ovviamente nn sono per me ma per un mio abiele amico in kitarra.
grazie CIAUIZZZ


darkred90
 
Messaggi: 7

Messaggiodi rufus89

ecco le tab per il tuo amico, e spero che a breve potrai usarle anche tu. :wink:
Codice: Seleziona tutto
Intro:

|--------5s6-6-6-5s6-6-6-5s6-6-6----------------|--------------------------|
|----6-8-5s6-6-6-5s6-6-6-5s6-6-6-9-8-6----------|--------------------------|
|--7-----------------------------------6h7------|-6s7-7-7-6s7-7-7-6s7------|
|-------------------------------------------8-8-|-7s8-8-8-7s8-8-8-7s8------|
|-----------------------------------------------|--------------------------|
|-----------------------------------------------|--------------------------|

                          10 times                                   |rake |
|-----------------------||---------||-------6-------8-6------------------6-|
|------6-8-6------------||------6--||---------9-8-6-----9-8-6----------6---|
|--5s7-7-7-7-5s7-5-3----||-8b10----||-8b10--------------------8--6h7-7-----|
|---------------------5-||---------||--------------------------------------|
|-----------------------||---------||--------------------------------------|
|-----------------------||---------||---------------- ---------------------|

|------------------------------|
|--9-8-6------6------6---------|
|--------8b10---8b10---8-6h7---|
|----------------------------8-|
|------------------------------|
|------------------------------|

Verse:

riff A:                             riff B:
|---------------------------------||---------------------------------|
|---------------------------------||---------------------------------|
|---------------------------------||---------------------------------|
|---------------------------------||--8-8-10--8-8-10--8-8-10--8-8-10-|
|--8-8-10--8-8-10--8-8-10--8-8-10-||--6-6-6---6-6-6---6-6-6---6-6-6--|
|--6-6-6---6-6-6---6-6-6---6-6-6--||---------------------------------|

riff C:                                     riff D:
|-----------------------------------------||-4-4-4-6-|
|-----------------------------------------||-6-6-6-6-|
|-----------------------------------------||---------|
|--10-10-10--10-10-10--10-10-10--10-10-10-||---------|
|--8--8--8---8--8--8---8--8--8---8--8--8--||---------|
|-----------------------------------------||---------|


First Break:
e|------------------------|6--6--6--6--6-----------|6--6--6--6--6-----------|
b|------------------6--8--|6--6--6--6--6-----------|6--6--6--6--6-----------|
g|------------6-7---------|---------------8-6h7----|---------------8-6h7----|
d|------------------------|---------------------8--|---------------------8--|
a|------------------------|------------------------|------------------------|
e|------------------------|------------------------|------------------------|


e|6-----------6-----------|6--r--6--r--6--r--6--r--|---------6--------8--6--|
b|6-----------6-----------|6--r--6--r--6--r--6--r--|------------9--r--------|
g|---8-6h7-------8-6h7----|------------------------|r--b8-r-----------------|
d|---------8-----------8--|------------------------|------------------------|
a|------------------------|------------------------|------------------------|
e|------------------------|------------------------|------------------------|
                               * r -rest

e|------6-----------6--6--|6-----------6--6--6--6--|6-----------6-----------|
b|9--8--6-----------6--6--|6--8--6-----6--6--6--6--|6--8--6-----6--8--6-----|
g|---------8--6-h7--7-----|---------7--------------|---------7-----------7--|
d|------------------------|------------------------|------------------------|
a|------------------------|------------------------|------------------------|
e|------------------------|------------------------|------------------------|


e|6--6--6--6--6-----------|------------------------|------------------------|
b|6--6--6--6--6-----------|8-b9--8-b9--8-b9--8-b9--|8-----------8--6--------|
g|---------------8-6h7----|8-b10-8-b10-8-b10-8-b10-|8--6--------8-6h7-------|
d|---------------------8--|------------------------|------8--r---------8--r-|
a|------------------------|------------------------|------------------------|
e|------------------------|------------------------|------------------------|

*****************************************************************************

riff A
Deep down in Louisiana, close to New Orleans,
riff A
Way back up in the woods among the evergreens,
riff B
There stood a log cabin made of earth and wood
riff A
Where lived a country boy named Johnny B. Goode
riff C
Who never ever learned to read or write so well,
riff A
But he could play the guitar just like a ringin' a bell.


CHORUS:

                           riff D
Go! Go! Go, Johnny, go! Go!
                   riff D
Go, Johnny, go! Go!
                   riff D
Go, Johnny, go! Go!
                   riff D
Go, Johnny, go! Go!       Johnny B. Goode

riff A
He used to carry his guitar in a gunny sack,
riff A
Go sit beneath the tree by the railroad track.
riff B
Old engineers would see him sittin' in the shade,
riff A
Strummin' with the rhythm that the drivers made.
riff C
When people passed him by they would stop and say,
riff A
'oh, my but that little country boy could play'

CHORUS

riff A
His mother told him, 'someday you will be a man,
riff A
You will be the leader of a big ol' band.
riff B
Many people comin' from miles around
riff A
Will hear you play your music when the sun go down.
riff C
Maybe someday your name'll be in lights,
riff A
Sayin' 'Johnny B. Goode tonight''

CHORUS


"In ogni conflitto le manovre regolari portano allo scontro, e quelle imprevedibili alla vittoria." (Sun Tzu - L'arte della guerra)

Accordi e tab Asaf Avidan
rufus89
 
Messaggi: 1002
Località: Latina

Messaggiodi SoundOfDreams

difficile sta canzone... col mio gruppo la facciamo versione blues..


SoundOfDreams
 
Messaggi: 12638
Località: Villa Literno (Caserta)

Messaggiodi darioguitar

Io ne sono innamorato e la giudico il brano più Rock&Roll di tutti i tempi. Tentare una versione blues mi sembra un'assurdità, ma non posso esprimermi in proposito senza avere prima ascoltato.

Vi invito a guardare questo video:




Dario
darioguitar
 
Messaggi: 126
Località: Palermo

Messaggiodi SoundOfDreams

darioguitar ha scritto:Io ne sono innamorato e la giudico il brano più Rock&Roll di tutti i tempi. Tentare una versione blues mi sembra un'assurdità, ma non posso esprimermi in proposito senza avere prima ascoltato.

Vi invito a guardare questo video:


wàà ma che cosaaaaaaa!! era bellissima la versione blues...


SoundOfDreams
 
Messaggi: 12638
Località: Villa Literno (Caserta)

Messaggiodi GOBLIN

beccatevi stà versione :)




:!: :!: :!: :!:


GOBLIN
 
Messaggi: 1024
Località: Provincia di Teramo

Messaggiodi SoundOfDreams

Noooooo GRAAAANDEEEEEEEEEEEEEEEEE


SoundOfDreams
 
Messaggi: 12638
Località: Villa Literno (Caserta)

cover

Messaggiodi darioguitar

Dato che siamo in vena di suggerimenti...
Ecco tre cover di "Johnny B Good" che si distinguono per originalità e qualità:

Green Day (per chi ama il rock vero)




Elvis Presley (per chi ama i classici)




Judas Priest (per chi ama l'heavy metal)





...ma mai nessuna è superiore all'originale.


Dario
darioguitar
 
Messaggi: 126
Località: Palermo

Messaggiodi rix strummer

beh c'è anche la versione di peter tosh




rix strummer
 
Messaggi: 1044
Località: casa di riposo (parma)

Prossimo


Torna a Accordi TAB Riff testo chords - Studiare canzoni


Chi c’è in linea

Visitano il forum: Nessuno e 6 ospiti