Accordi tab e Riff Paranoid - Black Sabbath

Hai trovato gli accordi chords di una canzone ad orecchio e vorresti suggerirla? Oppure vuoi proporre la TAB per chitarra del tuo Riff preferito? il testo? Questo è il forum giusto! Anche per suggerimenti sul ritmo di una canzone. Ricordati di usare la funzione cerca...

Accordi tab e Riff Paranoid - Black Sabbath

Messaggiodi SoundOfDreams




Visto che non è stato aperto un topic per questa canzone,o meglio ce n'è uno ma risulta un insieme di canzoni
Codice: Seleziona tutto
                                   Paranoid                                     


Tony Iommi (Base)
                                                                     
E||--------------------------------|--------------------------------|
B||--------------------------------|--------------------------------|
G||--------------------7h9-----7h9-|--------------------7h9-----7h9-|
D||--7h9--7h9--7h9-7h9-----7h9-----|--7h9--7h9--7h9-7h9-----7h9-----|
A||--7----7----7-------------------|--7----7----7-------------------|
E||--------------------------------|--------------------------------|


                                                                 
--------------------------------|--------------------------------|
--------------------------------|--------------------------------|
--------------------7h9-----7h9-|--------------------7h9-----7h9-|
--7h9--7h9--7h9-7h9-----7h9-----|--7h9--7h9--7h9-7h9-----7h9-----|
--7----7----7-------------------|--7----7----7-------------------|
--------------------------------|--------------------------------|


                                                     
|---------------------------------------------------|
|---------------------------------------------------|
|*--------------------------------------------------|
|*--9--9--9--9--9--9--9--9--9--9--9--9--9--9--9--9--|
|---7--7--7--7--7--7--7--7--7--7--7--7--7--7--7--7--|
|---------------------------------------------------|


                                                                 
-----------------------------------12-----||---------------------|
-----------------------------------12-----||---------------------|
--------------------------7--------12----*||--9--------5----7----|
--7--7--7--7--7--7--7--7--5-7---9--------*||--9--------5----7----|
--5--5--5--5--5--5--5--5----5---7---------||--7--------3----5----|
------------------------------------------||---------------------|


                                                                         
--------------------------------------------------|---------------------|
--------------------------------------------------|---------------------|
--------------------------------------------------|--9--------5----7----|
--9--9--9--9--9--9--9--9--9--9--9--9--9--9--9--9--|--9--------5----7----|
--7--7--7--7--7--7--7--7--7--7--7--7--7--7--7--7--|--7--------3----5----|
--------------------------------------------------|---------------------|


                                                   
--------------------------------------------------|
--------------------------------------------------|
--------------------------------------------------|
--9--9--9--9--9--9--9--9--9--9--9--9--9--9--9--9--|
--7--7--7--7--7--7--7--7--7--7--7--7--7--7--7--7--|
--------------------------------------------------|


                                                     
|---------------------------------------------------|
|---------------------------------------------------|
|*--------------------------------------------------|
|*--9--9--9--9--9--9--9--9--9--9--9--9--9--9--9--9--|
|---7--7--7--7--7--7--7--7--7--7--7--7--7--7--7--7--|
|---------------------------------------------------|


                                                               
-----------------------------------12-----||-------------------|
-----------------------------------12-----||-------------------|
--------------------------7--------12----*||--9----------------|
--7--7--7--7--7--7--7--7--5-7---9--------*||--9----------------|
--5--5--5--5--5--5--5--5----5---7---------||--7----------------|
------------------------------------------||-------------------|


                                                           
-------------------|-------------------|-------------------|
-------------------|-------------------|-------------------|
--7----------------|--9----------------|--7----------------|
--7----------------|--9----------------|--7----------------|
--5----------------|--7----------------|--5----------------|
-------------------|-------------------|-------------------|


                                                     
|---------------------------------------------------|
|---------------------------------------------------|
|*--------------------------------------------------|
|*--9--9--9--9--9--9--9--9--9--9--9--9--9--9--9--9--|
|---7--7--7--7--7--7--7--7--7--7--7--7--7--7--7--7--|
|---------------------------------------------------|


                                           
-----------------------------------12-----||
-----------------------------------12-----||
--------------------------7--------12----*||
--7--7--7--7--7--7--7--7--5-7---9--------*||
--5--5--5--5--5--5--5--5----5---7---------||
------------------------------------------||


                                                   
---------------------------------------------------|
---------------------------------------------------|
*--------------------------------------------------|
*--9--9--9--9--9--9--9--9--9--9--9--9--9--9--9--9--|
---7--7--7--7--7--7--7--7--7--7--7--7--7--7--7--7--|
---------------------------------------------------|


                                           
-----------------------------------12-----||
-----------------------------------12-----||
--------------------------7--------12----*||
--7--7--7--7--7--7--7--7--5-7---9--------*||
--5--5--5--5--5--5--5--5----5---7---------||
------------------------------------------||


                                                   
--------------------------------------------------|
--------------------------------------------------|
--------------------------------------------------|
--9--9--9--9--9--9--9--9--9--9--9--9--9--9--9--9--|
--7--7--7--7--7--7--7--7--7--7--7--7--7--7--7--7--|
--------------------------------------------------|


                                         
-----------------------------------12----|
-----------------------------------12----|
--------------------------7--------12----|
--7--7--7--7--7--7--7--7--5-7---9--------|
--5--5--5--5--5--5--5--5----5---7--------|
-----------------------------------------|


                                                   
--------------------------------------------------|
--------------------------------------------------|
--------------------------------------------------|
--9--9--9--9--9--9--9--9--9--9--9--9--9--9--9--9--|
--7--7--7--7--7--7--7--7--7--7--7--7--7--7--7--7--|
--------------------------------------------------|


                                         
-----------------------------------12----|
-----------------------------------12----|
--------------------------7--------12----|
--7--7--7--7--7--7--7--7--5-7---9--------|
--5--5--5--5--5--5--5--5----5---7--------|
-----------------------------------------|


                                                   
--------------------------------------------------|
--------------------------------------------------|
--------------------------------------------------|
--9--9--9--9--9--9--9--9--9--9--9--9--9--9--9--9--|
--7--7--7--7--7--7--7--7--7--7--7--7--7--7--7--7--|
--------------------------------------------------|


                                         
-----------------------------------12----|
-----------------------------------12----|
--------------------------7--------12----|
--7--7--7--7--7--7--7--7--5-7---9--------|
--5--5--5--5--5--5--5--5----5---7--------|
-----------------------------------------|


                                                   
--------------------------------------------------|
--------------------------------------------------|
--------------------------------------------------|
--9--9--9--9--9--9--9--9--9--9--9--9--9--9--9--9--|
--7--7--7--7--7--7--7--7--7--7--7--7--7--7--7--7--|
--------------------------------------------------|


                                         
-----------------------------------12----|
-----------------------------------12----|
--------------------------7--------12----|
--7--7--7--7--7--7--7--7--5-7---9--------|
--5--5--5--5--5--5--5--5----5---7--------|
-----------------------------------------|


                                                     
|---------------------------------------------------|
|---------------------------------------------------|
|*--------------------------------------------------|
|*--9--9--9--9--9--9--9--9--9--9--9--9--9--9--9--9--|
|---7--7--7--7--7--7--7--7--7--7--7--7--7--7--7--7--|
|---------------------------------------------------|


                                          3x                       
-----------------------------------12-----||----------------------|
-----------------------------------12-----||----------------------|
--------------------------7--------12----*||*--9--------5----7----|
--7--7--7--7--7--7--7--7--5-7---9--------*||*--9--------5----7----|
--5--5--5--5--5--5--5--5----5---7---------||---7--------3----5----|
------------------------------------------||----------------------|


                                                     
---------------------------------------------------||
---------------------------------------------------||
--------------------------------------------------*||
--9--9--9--9--9--9--9--9--9--9--9--9--9--9--9--9--*||
--7--7--7--7--7--7--7--7--7--7--7--7--7--7--7--7---||
---------------------------------------------------||


                                                   
---------------------------------------------------|
---------------------------------------------------|
*--------------------------------------------------|
*--9--9--9--9--9--9--9--9--9--9--9--9--9--9--9--9--|
---7--7--7--7--7--7--7--7--7--7--7--7--7--7--7--7--|
---------------------------------------------------|


                                          2x
-----------------------------------12-----||
-----------------------------------12-----||
--------------------------7--------12----*||
--7--7--7--7--7--7--7--7--5-7---9--------*||
--5--5--5--5--5--5--5--5----5---7---------||
------------------------------------------||


                                                   
--------------------------------------------------|
--------------------------------------------------|
--------------------------------------------------|
--9--9--9--9--9--9--9--9--9--9--9--9--9--9--9--9--|
--7--7--7--7--7--7--7--7--7--7--7--7--7--7--7--7--|
--------------------------------------------------|


                                       
-------------------------------------||
-------------------------------------||
-------------------------------------||
--7--7--7--7--7--7--7--7-------------||
--5--5--5--5--5--5--5--5--2----------||
----------------------------3b--0----||





Solo
Codice: Seleziona tutto
|---------------------------|----------------------------|
-------------------||---------------------------|----------------------------|
------------------*||--9r-7-9~------9-7-9-7-----|----------------------------|
------------------*||-----------------------9/7-|--5h7-5h7--------5----------|
-------------------||---------------------------|----------5h7-7----7---7----|
-------------------||---------------------------|----------------------------|


                                                                           
-------------------------------------|------------------------------12----|
-----------------------8-10-10r-8-10r|---8-10--8-----------------12----12-|
----------7h9-9--7h8/9---------------|-----------9-9--7h9-9-9/14----------|
--5h7-7/9----------------------------|------------------------------------|
-------------------------------------|------------------------------------|
-------------------------------------|------------------------------------|


                                           
------------------15~-15~-15~-12-15p12----|
--15~--15~--15b12----------------------15-|
------------------------------------------|
------------------------------------------|
------------------------------------------|
------------------------------------------|


                                                         
--15p12----------------12-------------------------------|
--------15b15p12----12----15p12-------------------------|
-----------------14b------------14-14p12----12-14r--12--|
-----------------------------------------14-------------|
--------------------------------------------------------|
--------------------------------------------------------|


                                                           
----------------------------------------------------------|
----------------------------------------------------------|
--14b-12h14p12----12--------------------------------------|
---------------14----14-14p12-----------------------------|
------------------------------14-12--12/10-12p10----12/14-|
-------------------------------------------------12-------|


                                                                             3x
------------------------------------||-------------------|-------------------||
------------------------------------||-------------------|-------------------||
------------------------------------||*------------------|------------------*||
------------12----------------------||*------------------|------------------*||
--12--12h14----14-12--14-12---14----||-------------------|-------------------||
------------------------------------||-------------------|-------------------||




E' una canzone bellissima,una delle più famose dei Black Sabbath,è stata una delle prime che ho imparato :wink:


SoundOfDreams
 
Messaggi: 12638
Località: Villa Literno (Caserta)


Messaggiodi Mr. D

Strano che non ci fosse infatti, comunque bella peccato per il solo un pò tosto...




Mr. D
 
Messaggi: 1869
Località: MI

Messaggiodi rollix

bellissimo pezzo e davvero soddisfacente per chi è all'inizio!!!! sto sputando sangue per fare 4 pezzi in croce degli AC/DC ma con questo ho fatto in un lampo a preparalo con grandissima soddisfazione e con il morale alle stelle!!!!!!! :x ....altri pezzi hard rock semplici ma d'effetto????


rollix
 
Messaggi: 59

Messaggiodi SoundOfDreams

rollix ha scritto:bellissimo pezzo e davvero soddisfacente per chi è all'inizio!!!! sto sputando sangue per fare 4 pezzi in croce degli AC/DC ma con questo ho fatto in un lampo a preparalo con grandissima soddisfazione e con il morale alle stelle!!!!!!! :x ....altri pezzi hard rock semplici ma d'effetto????
Guarda se noti nella sezione c'è un argomento "importante" con il link a tutte le canzoni semplici ,per iniziare..


SoundOfDreams
 
Messaggi: 12638
Località: Villa Literno (Caserta)

Messaggiodi rollix

si si l'avevo già visto...... scrivo poco ma leggo molto!! :-) mi interessavano pezzi hard rock anni '70/'80 piuttosto semplici come questo o smoke on the water... ne conosci altri?


rollix
 
Messaggi: 59

Messaggiodi SoundOfDreams

rollix ha scritto:si si l'avevo già visto...... scrivo poco ma leggo molto!! :-) mi interessavano pezzi hard rock anni '70/'80 piuttosto semplici come questo o smoke on the water... ne conosci altri?
mmh..i love rock n'roll[JOAN JETT],born to be wild[STEPPENWOLF],back in black[ACDC],black sabbath[BLACK SABBATH],come on feel the noise[QUITE RIOT],I'm think about you [DANGER DANGER].. ovviamente tutte parti ritmiche e non soliste..


SoundOfDreams
 
Messaggi: 12638
Località: Villa Literno (Caserta)

Messaggiodi rollix

si si certo... ritmiche!!!! back in black la faccio, ma ci ho messo un bel po' per impararla!!!! paranoid e smoke on the water invece un paio di giorni.... ora cerco qualche pezzo del genere facile da preparare e poi magari apro un discussione. I pezzi belli, semplici e d'effetto mi tirano su il morale quando studio una canzone da un mese e non mi riesce niente di buono!!! :?


rollix
 
Messaggi: 59

Messaggiodi rix strummer

cmq io nn ci stò mai un mese intero su una canzone xchè secondo me è controproducente
per me è meglio provare a suonare molte canzoni insieme così si imparano passaggi e scale nuove e nn ci si fossilizza su una cosa
cmq ognuno ha il suo metodo


rix strummer
 
Messaggi: 1044
Località: casa di riposo (parma)

Messaggiodi SoundOfDreams

rix strummer ha scritto:cmq io nn ci stò mai un mese intero su una canzone xchè secondo me è controproducente
per me è meglio provare a suonare molte canzoni insieme così si imparano passaggi e scale nuove e nn ci si fossilizza su una cosa
cmq ognuno ha il suo metodo
Un mio amico maestro invece diceva che è meglio imparare bene una canzone che saperne fare dieci ma tutte spezzettate


SoundOfDreams
 
Messaggi: 12638
Località: Villa Literno (Caserta)

Messaggiodi rix strummer

questo me lo ha detto anche il mio tastierista ma io vado avanti per la mia strada :)

io per esempio se voglio imparare una song inizio a provarla e se vedo che c sn parti troppo difficili x le mie capacità passo ad un altra e così via poi piano piano quando sento che ne ho le capacità ritornò sulla prima canzone che avevo lasciato in sospeso e così via

infatti ho fatto così per imparare l'ultima canz di cui ho fatto il video xchè era un pò di tempo che avevo in mente di farla ma nn mi era mai riuscita poi una volta tornato dalla vacanza di tre settimane, durante le quali ho provato tutt'altre canzoni, magicamente mi è venuta !!! :!:
cmq questa è la mia esperienza e probabilmente, anzi sicuramente, io nn uso il metodo più corretto però cn me funziona :wink:


rix strummer
 
Messaggi: 1044
Località: casa di riposo (parma)

Messaggiodi mikyroma

scusate la mia ignoranza,xò io sono un principiante al 100%,mi spiegate come si leggono queste tab?
cioè ho capito che forase qll sono le corde e il 7 sta ad indicare il tasto,ma x il resto?cosa significano quelle h? equando c'è il 9,significa ke devo mettere il dito su quella corda al nono tasto?

grazie


crazy but thats how it goes ....
millions of people living as foes...
maybe its not too late....
to learn how to love and forget how to hate!!!
mikyroma
 
Messaggi: 26

Messaggiodi noice



"i plettri sono fatti per essere persi, dimenticati, fregati agli amici, scambiati come fiches del casinò.. lavati con i jeans.." [cit. Mario]

Guida ai plettri per chitarra
noice
 
Messaggi: 1718
Località: Ischia

Messaggiodi mikyroma

grazie mille


crazy but thats how it goes ....
millions of people living as foes...
maybe its not too late....
to learn how to love and forget how to hate!!!
mikyroma
 
Messaggi: 26

Messaggiodi mikyroma

ki mi spiega kosa signifa 7h9 ?
ho letto nelle istruxioni ma nn lho kapito e ho cerkato da altre parti ma nn mi è kiaro, kosa dovrei farE?


crazy but thats how it goes ....
millions of people living as foes...
maybe its not too late....
to learn how to love and forget how to hate!!!
mikyroma
 
Messaggi: 26

Messaggiodi SoundOfDreams

mikyroma ha scritto:ki mi spiega kosa signifa 7h9 ?
ho letto nelle istruxioni ma nn lho kapito e ho cerkato da altre parti ma nn mi è kiaro, kosa dovrei farE?
h sta a significare hammer.. penni il 7 tasto in corrispondenza della nota poi col medio batti sul 9 (ci sono due hammer nel ritornello quindi ti consiglio di premere un barrè per evitare troppi cambiamenti di posizioni)


SoundOfDreams
 
Messaggi: 12638
Località: Villa Literno (Caserta)

Prossimo


Torna a Accordi TAB Riff testo chords - Studiare canzoni


Chi c’è in linea

Visitano il forum: Nessuno e 4 ospiti