Accordi Tab Riff Intro Guns N' Roses- Sweet child of mine

Hai trovato gli accordi chords di una canzone ad orecchio e vorresti suggerirla? Oppure vuoi proporre la TAB per chitarra del tuo Riff preferito? il testo? Questo è il forum giusto! Anche per suggerimenti sul ritmo di una canzone. Ricordati di usare la funzione cerca...

Accordi Tab Riff Intro Guns N' Roses- Sweet child of mine

Messaggiodi SoundOfDreams




Re

She's got a smile that it seems to me

Do9

Reminds me of childhood memories

Sol

Where everything was as fresh as the bright blue sky

Re

Now and then when I see her face

Do9

She takes me away to that special place

Sol Re

and if I stared too long I'd probably break down and cry

Do9 Sol Re

Oh oh, sweet child o' mine

Do9 Sol Re

Oh, oh, oh, sweet love of mine



Re

She's got eyes of the bluest sky

Do9

as if they thought of rain

Sol Re

I hate to look into those eyes and see an ounce of pain

Re

Her hair reminds me of a warm safe place

Do9

where as a child I'd hide

Sol Re

and pray for the thunder and the rain to quietly pass me by



Do9 Sol Re

Oh oh, sweet child o' mine

Do9 Sol Re

Oh, oh, oh, sweet love of mine

Do9 Sol Re

Oh, oh, oh, oh sweet child o' mine

Do9 Sol Re

Hey, hey-hey Oh sweet love of mine



Mim Do Sim7 Lam



Mi Sol La Do Re

Where do we go, where do we go now, where do we go

Mi Sol La Do Re

Where do we go, where do we go now, where do we go

Mim Sol La Do Re

Where do we go, [sweet child, where do we go now



Mim Sol La Do Re

Ahhhhhhhhh, where do we gooooooooooooo

Mim Sol La Do Re

Where do we go, sweet child, where do we go now

Mim Sol La Do Re

Where do we gooooooo, where do we go now

Mim Sol La Do Re

Where do we go, where do we go now Na-na-na-na-na-na

Mim Sol La Do Re

Sweet child, sweet chi-ld o' mine



raga.... ma... un bel video... o qualcuno che mi spieghi come fare il riff iniziale?
Ultima modifica di SoundOfDreams su , modificato 1 volte in totale.


SoundOfDreams
 
Messaggi: 12638
Località: Villa Literno (Caserta)


Messaggiodi Simrulez




questo ok, vi voglio a fare l'inizio dell'assolo!!
e cmq nn si puo fare con accordi un pezzo così!


"una invenzione che porteresti indietro nel tempo?"
"la chitarra elettrica e l'amplificatore"
Simrulez
 
Messaggi: 337

Messaggiodi SoundOfDreams

Simrulez ha scritto:questo ok, vi voglio a fare l'inizio dell'assolo!!
e cmq nn si puo fare con accordi un pezzo così!

La ritmica c'è -.-


SoundOfDreams
 
Messaggi: 12638
Località: Villa Literno (Caserta)

Messaggiodi SoundOfDreams

Intro: (Gtr. 1) Riff A
|-----------------15---------14-------|
|-----15------------------------------|
|---------14--12------14-----------14-|
|%-12--------------------------------%|
|-------------------------------------|
|-------------------------------------|

|------------------15--------14-------|
|------15-----------------------------|
|---------14--12--------14---------14-|
|%-14--------------------------------%|
|-------------------------------------|
|-------------------------------------|
_______________________________________
end of Riff A

|----------------------15----------14--------|
|---------15---------------------------------|
|-----12-------14--12--------14-----------14-|
|%------------------------------------------%|
|--------------------------------------------|
|--------------------------------------------|

|---------------------15-------14------|
|-------15-----------------------------|
|-----------14--12--------14--------14-|
|%-12---------------------------------%|
|--------------------------------------|
|--------------------------------------|


SoundOfDreams
 
Messaggi: 12638
Località: Villa Literno (Caserta)

Messaggiodi Simrulez

esatto la tab è quello ed ecco come mi viene

come al solito youtube fa c....e e sfase sonoro/video..


"una invenzione che porteresti indietro nel tempo?"
"la chitarra elettrica e l'amplificatore"
Simrulez
 
Messaggi: 337

Messaggiodi Fighi

Mi scuso se vado un pelino OT e se mi spiego da cani ma ho appena iniziato con la chiatarra elettrica e volevo chiedere una cosa dopo aver visto e sentito questo video: come è possibile far suonare la chitarra in modo così acuto? Serve qualke filtro particolare? Lo chiedo perchè la mia suona come una classica e niente più..


Fighi
 
Messaggi: 10

Messaggiodi SoundOfDreams

Fighi ha scritto:Mi scuso se vado un pelino OT e se mi spiego da cani ma ho appena iniziato con la chiatarra elettrica e volevo chiedere una cosa dopo aver visto e sentito questo video: come è possibile far suonare la chitarra in modo così acuto? Serve qualke filtro particolare? Lo chiedo perchè la mia suona come una classica e niente più..
questione anche di amplificatore...devi regolare i suoni...


SoundOfDreams
 
Messaggi: 12638
Località: Villa Literno (Caserta)

Messaggiodi Dufresne

Simrulez ha scritto:esatto la tab è quello ed ecco come mi viene

come al solito youtube fa c....e e sfase sonoro/video..


simularez linguaggio meno colorito perfavore...


Dufresne
 
Messaggi: 6150

Messaggiodi Simrulez

Dufresne ha scritto:
Simrulez ha scritto:esatto la tab è quello ed ecco come mi viene

come al solito youtube fa c....e e sfase sonoro/video..


simularez linguaggio meno colorito perfavore...

:wink: sorry ^^ però l'assolo mi viene bene :P


"una invenzione che porteresti indietro nel tempo?"
"la chitarra elettrica e l'amplificatore"
Simrulez
 
Messaggi: 337

Messaggiodi Pappy

----------------------15-------14--------
-------15---------------------------------
------------14--12-------14-------14----
--12--------------------------------------- x2
--------------------------------------------
--------------------------------------------

----------------------15--------14--------
-------15----------------------------------
--------------------------------------------
--14-------14--12--------14--------14--- x2
--------------------------------------------
--------------------------------------------

----------------------15--------14--------
-------15----------------------------------
--12-------14--12--------14--------14---
-------------------------------------------- x2
--------------------------------------------
--------------------------------------------


ora ttt qst lo ripeti + volte, e l'ultima volta fai ttt e 6 le volte, poi fai qst:

--12-------12--14--15--14--12----------
-------15--------------------------15-----
--------------------------------------------
--------------------------------------------
--------------------------------------------
--------------------------------------------

gli accordi sn nella strofa: re do sol
invece nelm ritornello: la do re

se m sn spiegato bene c riuscirai... :x


Pappy
 
Messaggi: 69

Cover sweet child of mine-Guns n' roses

Messaggiodi Enriguitar

Ciao a tutti!
sono un nuovo iscritto in questo forum!...posto il mio primo video della cover dei mitici guns n'roses --sweet child of mine--



lasciate commenti in merito!!...tenete conto che sono un principiante....suono la chitarra solo da tre anni!quindi non aspettatevi grandi cose!...GRAZIE A TUTTI!!!


Enriguitar
 
Messaggi: 3

Messaggiodi Zarty

sicuro di aver messo il link corretto? :-?


Strumentazione:
-Ibanez JS1200
-Epiphone Blues Custom 30
-Altre cosette ;)
Zarty
 
Messaggi: 644
Località: Vicino a Udine

Messaggiodi slashizzy

Zarty ha scritto:sicuro di aver messo il link corretto? :-?


Io ho detto che non avrei piu' postato, ma qui faccio un'eccezione.
Ho cliccato sul link e non mi va, mi sarebbe interessato vedere come la fai, il fatto è che mi vengono una serie di filmati, fra cui una che si chiama WOW, dove vedo un sedere femminile...forse hai sbagliato link.


slashizzy
 
Messaggi: 769
Località: La terra della filosofia

Messaggiodi ziomattu

Per quel che riguarda youtube ti do pienamente ragione: non posterò mai li, nemmeno il latrato del mio cane.

Dunque, le note sono quelle, ma il bello del riff in questione è proprio nel come scorrono.
Perciò...Adesso ti ci vorrebbe la svolta!

Magari dai uno sguardo a questo, e occhio all'uso poco dispendioso di manine e plettro (le energie le devi conservare per lo stage diving!)




(lascia perdere il fatto che a suonarla sia praticamente un bimbo, sennò sembra che ti stia prendendo in giro!)

:shock:


Quì ci starebbe bene una frase ad effetto, che la leggi e dici:"Che stooooriaaaa!"; che mi qualificasse come uno "figo", acculturato, intelligentissimo, sensibbbile e dalla mente aperta...ma...
Non mi viene in mente nulla.
ziomattu
 
Messaggi: 194
Località: Cagliari

Cover guns n'roses - sweet child of mine -

Messaggiodi Enriguitar

grazie ziumattu x il consiglio!
mi scuso con quelli ke nn sono riusciti a vedere il video...non capisco perche nn lo visualizza!....provo a ripostare il link sperando ke funzioni!




ora dovrebbe funzionare! :P


Enriguitar
 
Messaggi: 3

Prossimo


Torna a Accordi TAB Riff testo chords - Studiare canzoni


Chi c’è in linea

Visitano il forum: Nessuno e 25 ospiti