Accordi tab intro Knockin on heaven's door Guns n' Roses

Hai trovato gli accordi chords di una canzone ad orecchio e vorresti suggerirla? Oppure vuoi proporre la TAB per chitarra del tuo Riff preferito? il testo? Questo è il forum giusto! Anche per suggerimenti sul ritmo di una canzone. Ricordati di usare la funzione cerca...

Accordi tab intro Knockin on heaven's door Guns n' Roses

Messaggiodi Never

E poi non ditemi che non vi voglio bene...

il primo che lo impara deve postare il video...

Ciauz

Canzoniere magnum. 330 testi e accordi

|--------------------------------------------------------------|--------------------|
|------------------------------------15-----------------------|--------------------|
|----12-14pb16r(14)-12-14-(14)----14pb15r(14)-12-12-|-(12)----------12-|
|--------------------------------------------------------------|------------14-----|
|--------------------------------------------------------------|--------------------|
|--------------------------------------------------------------|--------------------|

|--------------------------------------------------|--------------------------15----|
|-17-15--13-12-13b15==(13)-(13)r---13-12-|-13-12---------12-13-----13-|
|--------------------------------------------------|--------------------------------|
|--------------------------------------------------|--------14--(14)---------------|
|---------------------------------------------------|-------------------------------|
|---------------------------------------------------|-------------------------------|

|---------15-17b19-17--17b19==(17)r---17b19-(17)-|-15---------20b22==|
|-12--17--------------------------------------------------|------------------------|
|-----------------------------------------------------------|-----------------------|
|-----------------------------------------------------------|-----------------------|
|-----------------------------------------------------------|-----------------------|
|-----------------------------------------------------------|-----------------------|

|-(20)r-20-19-20-19-20b22-(20)-20-----20-20-----|
|-----------------------------------------18--------17-|
|--------------------------------------------------------|
|--------------------------------------------------------|
|--------------------------------------------------------|
|--------------------------------------------------------|

|-----------------------------------------------------------------------------------|
|-(17)-(17)------------------------------------------------------------------------|
|-------------19b21r(19)b21==(19)r(19)---------------------------------------|
|--------------------------------------------19b20r(19)b20==(19)r(19)-17-17-|
|-----------------------------------------------------------------------------------|
|-----------------------------------------------------------------------------------|

|----------------------------|-------------------------------|
|-20------------------------|-------------------------------|
|----------------------------|-------------------------------|
|----------------------------|-------------------------------|
|----------------------------|-------------------------------|
|----------------------------|-------------------------------|

Poichè non riesco a mettere in ordine totalmente le note... fate attenzione a quelle che non sono sulla stessa corda... la TAB è giusta ma le note sembrano o un pò prima o un pò dopo...
DOVETE ASSOLUTAMENTE AVERLO IN TESTA... PRIMA!!!


"... la vita è come una scatola di cioccolatini... non sai mai quello che ti capita..." Forrest Gump

Imparare accordo do maggiore

Imparare accordo re maggiore
Never
 
Messaggi: 943
Località: Milano


Accordi tab intro Knockin on heaven's door Guns n' Roses

Messaggiodi Eridanus04

grande never

anche se mi aspettavo qualcosa di piu facile sinceramente


Cellar Door
Eridanus04
 
Messaggi: 230

Accordi tab intro Knockin on heaven's door Guns n' Roses

Messaggiodi Never

con il video sarà più semplice... vedrai...
...ciauz... eheheh


"... la vita è come una scatola di cioccolatini... non sai mai quello che ti capita..." Forrest Gump

Imparare accordo do maggiore

Imparare accordo re maggiore
Never
 
Messaggi: 943
Località: Milano

Accordi tab intro Knockin on heaven's door Guns n' Roses

Messaggiodi Mines

aspettiamo il video allora


Mines
 
Messaggi: 118

Accordi tab intro Knockin on heaven's door Guns n' Roses

Messaggiodi Never

si ma intanto impara le diteggiature della pentatonica... mi raccomando...
si devono fare a occhi chiusi...

soprattuto la diteggiatura n#5... poi prova e riprova il banding...


"... la vita è come una scatola di cioccolatini... non sai mai quello che ti capita..." Forrest Gump

Imparare accordo do maggiore

Imparare accordo re maggiore
Never
 
Messaggi: 943
Località: Milano

Accordi tab intro Knockin on heaven's door Guns n' Roses

Messaggiodi laurami

Il banding sarebbe?
Forse l'hai già detto ma ora ho proprio la testa fra le nuvole (sono sommerso dal lavoro e sto facendo una pausa).


laurami
 
Messaggi: 843

Accordi tab intro Knockin on heaven's door Guns n' Roses

Messaggiodi Never

quando con le dita tiri in su o in giu una corda per raggiungere il un tono sopra quella di partenza...

mi sono spiegato come un cane...
eheheh

ma non ci ho tempo..eheh sono in pausa anch'io... ed è già finita...


"... la vita è come una scatola di cioccolatini... non sai mai quello che ti capita..." Forrest Gump

Imparare accordo do maggiore

Imparare accordo re maggiore
Never
 
Messaggi: 943
Località: Milano

Messaggiodi fede_r

Ciao a tutti sono nuovo e siccome sono un patito dei guns non potei fare a meno di impararmi la loro versione di knockin' on heaven's door...se avete bisogno per l'assolo (suppongo parliate del primo) posso aiutarvi io, magari non so o ve lo spiego a parole o ve lo "filmo" e vi mando un video...boh al caso ditemi voi :D


She says we gotta hold on to what we've got, it doesn't make a difference if we make it or not.
fede_r
 
Messaggi: 26

Messaggiodi lorenzo-giudici

un video sarebbe perfetto :!: .... però senti il capo......


"Sono sepolto fino al collo dalle mie contraddizioni. Sono il parassita di me stesso. Non ho bisogno di qualcuno che mi ospiti. Semmai hai bisogno di qualcosa ti pego non esitare a chiedere prima a qualqun altro"
Kurt Cobain
lorenzo-giudici
 
Messaggi: 372

Accordi tab intro Knockin on heaven's door Guns n' Roses

Messaggiodi Never

si dai... così vediamo come suoni.... eheheh

ti facciamo il test... ti facciamo...

lo sapevi che per restare qui nel forum devi passare un test???

il capo non te l'ha detto???? eheheheh


"... la vita è come una scatola di cioccolatini... non sai mai quello che ti capita..." Forrest Gump

Imparare accordo do maggiore

Imparare accordo re maggiore
Never
 
Messaggi: 943
Località: Milano

Accordi tab intro Knockin on heaven's door Guns n' Roses

Messaggiodi Dufresne

si, peccato che quello più difficile e importante è sul canto e l'intonazione vocale...e never non l'ha superato

nemmeno io per la verità...

PS: non c'è nessun test...è uno scherzo (sennò la gente comincia a mandarmi messaggi chiedendo: anch'io voglio fare il test...cosa devo fare?)


Dufresne
 
Messaggi: 6160

Messaggiodi fede_r

il video l'ho già fatto solo ke cm ho già detto a dufresne in pm ho un problema con la videocamera (nn riesco a collegarla...) ma x stasera o domani al più tardi dovrei farcela (p.s.: ho visto le prossime canzoni da preparare...smells like teen spirit la so già fare, wake me up è semplice devo solo reimpararmi la parte finale dell'arpeggio)


She says we gotta hold on to what we've got, it doesn't make a difference if we make it or not.
fede_r
 
Messaggi: 26

Accordi tab intro Knockin on heaven's door Guns n' Roses

Messaggiodi Never

Duf: anch'io voglio fare il TEST... cosa devo fare'?? ahahahaha


"... la vita è come una scatola di cioccolatini... non sai mai quello che ti capita..." Forrest Gump

Imparare accordo do maggiore

Imparare accordo re maggiore
Never
 
Messaggi: 943
Località: Milano

Accordi tab intro Knockin on heaven's door Guns n' Roses

Messaggiodi Dufresne

...ma tu non dovevi partire per le vacanze di pasqua
scherzo... :)

PS: ...stiamo creando mezzo topic di cacchiate, rientiamo in tema please...


Dufresne
 
Messaggi: 6160

Accordi tab intro Knockin on heaven's door Guns n' Roses

Messaggiodi fede_r

ladies and gentlemen eccovi ...se va bene allora te lo mando sulla mail dufresne, altrimenti sono 5 mega occupati x nulla ;)

P.S.: nella conversione da avi a mpeg è venuto un po' di sfarfallio audio...più di così nn era possibile

se volete posso anche rifarlo più lento...basta kiedere :)

God gave rock 'n' roll to you.

EDIT: IL LINK NON FUNGE DIRETTAMENTE, COPIATELO NELLA BARRA DELL'URL ;)


She says we gotta hold on to what we've got, it doesn't make a difference if we make it or not.
fede_r
 
Messaggi: 26

Prossimo


Torna a Accordi TAB Riff testo chords - Studiare canzoni


Chi c’è in linea

Visitano il forum: Nessuno e 5 ospiti