Tell me baby - Red Hot Chili Peppers (Proposta)

Hai trovato gli accordi chords di una canzone ad orecchio e vorresti suggerirla? Oppure vuoi proporre la TAB per chitarra del tuo Riff preferito? il testo? Questo è il forum giusto! Anche per suggerimenti sul ritmo di una canzone. Ricordati di usare la funzione cerca...

Tell me baby - Red Hot Chili Peppers (Proposta)

Messaggiodi zion982

Mi sono innamorato del nuovo pezzo dei RHCP "Tell me baby"...ho provato a imitare un pò la canzone ed ho ottenuto questo:

X 3 VOLTE:
E||-3--5----3---5-------------------------------
B||-------5---------5-5-----------------------------
G||---------------------------------------------
D||---------------------------------------------
A||---------------------------------------------
E||----------------------------------------------
e poi:
E||-3--5--3--8--7--5--3--5-----------------------
B||-------------------------------------------------
G||---------------------------------------------
D||---------------------------------------------
A||---------------------------------------------
E||----------------------------------------------

Volevo proporvelo dato che penso che sia proprio identico...
Ho provato anche a fare qualcosaltro:

E||-8--8--7--8----7--7--8--5---5--13-13--12--12--10-10-10-5-5-
B||-------------------------------------------------
G||---------------------------------------------
D||---------------------------------------------
A||---------------------------------------------
E||----------------------------------------------

Volevo domandarvi se qualcuno si è cimentato in questa canzone e se conoscete quindi anche gli accordi (ke nn ho ancora scoperto) come ad esempio quelli iniziali (x l'appunto quelli ke vengono eseguiti prima dell'assolo ke ho sopra evidenziato)

Grazie


zion982
 
Messaggi: 50


nuuu

Messaggiodi darkside

io non la faccio così :roll:

io Faccio uh aspetta ke trascrivo.... cmq anche John :!: fa così!

Arpeggio il FAmaj7 XX321X poi il DO X3X01x il SOL 3XX00X e il LAminore X0X21X
poi faccio un REm/LA x00231 vuoto
ri-arpeggio gli accordi sopra, con un piccolo abbellimento chesi può notare nei Live. sul Laminore faccio un Hammer on e un pull-off sul terzo tasto del SI poi faccio Il Famaj7 il DO e stavolta un SOLsettima. Questo è l' intro.
Ti posto la tab !

http://www.ultimate-guitar.com/tabs/r/r ... r2_tab.htm

Non trovo che sia una grande opera dei miei peperoncini preferiti, cmq è armoniosa e molto facile. Fun yourself!

Per il solo guarda tu le altre versioni :wink:


" Le bambine: Godin SD, Ovation, Jaguar ( Egmond prob. anni 60)
Effetti: Behringer OD100, Big Muff, Chorus VOX, Behringer Wah HB100, Ibanez Tubescreamer, Delay analogico.
Ampli: Roland SUper-Cube 100 "

è simplicemente UNA CHITARRA.
darkside
 
Messaggi: 128
Località: Rocktown

Messaggiodi zion982

grazie 1000!!! cmq l'assolo iniziale come lo faccio io nn credo sia errato e penso sia + facile..almeno a me viene + facile...il resto della canzone la sto studiando..grazie a te xkè nn riuscivo davvero a trovare nulla a riguardo..cmq mi rendo pure conto ke ci vorrebbe una bella kitarra elettrica pure, cosa ke nn ho, questa canz nn è proprio da kitarra acustica!grz ancora!


zion982
 
Messaggi: 50

Messaggiodi V1NceNZ0

ehi zion piacere di conoscerti. ti scrivo per quel pezzo dei red hot. secondo me va bene km lo fai ma andrebbe meglio km lo faccio io. provalo! 8)
mi||------------------------------||
SI||---1---1---0-1------1---1---0-||
SOL||-2---0---0-----2--2---0---0---||
RE||-3----------------3-----------||
LA||-----3-------0--------3-------||
MI||---------3----------------3---||
questo è l'arpegio iniziale

MI|-----------------||
SI||-8-10---8-8-10---||
SOL||------9--------9-||
RE||-----------------||
LA||-----------------||
MI||-----------------||
MI||-------------------||
SI||-8-10--13p12-10----||
SOL||-----9----------12-||
RE||-------------------||
LA||-------------------||
MI||-------------------||
questo invece va fatto durante la strofa

mi||-12-12-12-||
SI||-12-12-12-||
SOL||----------||
RE||----------||
LA||----------||
MI||----------||
mi||-15-15-15-15-15-||
SI||-15-15-15-15-15-||
SOL||----------------||
RE||----------------||
LA||----------------||
MI||----------------||
e questo durante la parte nella quale si canta veloce, quella prima del ritornello.

per il ritornello avevo pensato a questa serie di accordi
FA DO SOL REm

fammi saxe ke ne pensi
:?


V1NceNZ0
 
Messaggi: 77
Località: Boscoreale(NA)

Messaggiodi zion982

xfetto Vincenzo...gli accordi sembrano esatti...ti ringrazio..cmq andrebbe suonata con la kitarra elettrica eheh con l'acustica nn rende bene :idea:


zion982
 
Messaggi: 50

Messaggiodi V1NceNZ0

beh in effetti :roll: nn va l'acustica, x questa canzone.
ma ti riesce, vuoi qualke kiarimento?
di dove6?nn preoccuparti nn ci voglio provare. è ke sn alla disperata ricerca di qualcuno ke possa 8) insieme kn me


V1NceNZ0
 
Messaggi: 77
Località: Boscoreale(NA)

Messaggiodi SoundOfDreams

L'ho fatta.. ma.. in alcuni punti sembra un tantinello strana...


SoundOfDreams
 
Messaggi: 12638
Località: Villa Literno (Caserta)

Messaggiodi V1NceNZ0

in quali punti scusa, a me sembra xfetta


V1NceNZ0
 
Messaggi: 77
Località: Boscoreale(NA)

Messaggiodi SoundOfDreams

Oddio.. scusa vincè.. mi riferivo alla versione di Zion :D la tua va bene!


SoundOfDreams
 
Messaggi: 12638
Località: Villa Literno (Caserta)

Messaggiodi V1NceNZ0

ah
vabbè fa niente nn ti preoccupare


V1NceNZ0
 
Messaggi: 77
Località: Boscoreale(NA)

Messaggiodi V1NceNZ0

:cry: sn disperato :cry: mi aiutate kn l'assolo di questa song?
!!!!!please!!!!!


V1NceNZ0
 
Messaggi: 77
Località: Boscoreale(NA)

Messaggiodi SoundOfDreams

Codice: Seleziona tutto
SOLO  (w/distortion...)
         
(John might miss the first note or there is some problem switching
effect, I’don’t know. However it goes like this. U might wanna turn
distortion on after two first notes to get it right.)

--x----------------------------|----------------------|
-19-19-----17b---17b---17--17b-|---17b--17--17b---17b-|
--x-17-------------------------|----------------------|
--x----------------------------|----------------------|
--x----------------------------|----------------------|
--x----------------------------|----------------------|

---------------------------------|-------------------------------------|
---------------------------------|-19----------------19b---------------|
-17---17---17--17p15-15h17-17-17-|---17p15-15h17-17-----17p15-15h17-17-|
---------------------------------|-------------------------------------|
---------------------------------|-------------------------------------|
---------------------------------|-------------------------------------|

                    (very fast)
-------------------|-------------------------------------------------------|
-19----------------|-19b------19-------19-------19-------19-------19-------|
----17p15-15h17-17-|----17-15----17p15-17-17p15-17-17p15-17-17p15-17-17p15-|
-------------------|-------------------------------------------------------|
-------------------|-------------------------------------------------------|
-------------------|-------------------------------------------------------|

---------------------------------------|
-19b------19-19-19-19-19b----19-15-17b-|
----17-15-17-17-17-17------------------|
---------------------------------------|
---------------------------------------|
---------------------------------------|



SoundOfDreams
 
Messaggi: 12638
Località: Villa Literno (Caserta)

Messaggiodi V1NceNZ0

sn disperato lo stesso nn riesco a farla
nn avete qualke dritta?
sn anke alla ricerca della tab del rit. di questa song


V1NceNZ0
 
Messaggi: 77
Località: Boscoreale(NA)

Messaggiodi zion982

allora...l'assolo ke ho scritto io ke va fatto x 3 volte secondo me è identico a quello vostro, soltanto che viene fatto su mi cantino...il resto magari può non essere esatto..lho composta "ad orekkio" e ripeto ke sn alle prime armi quindi nn sono attendibile...i 4 accordi di Vincenzo per quanto riguarda il ritornello sembrano buoni...cmq sound of dreams, i tuoi accordi sono sicuramente quelli giusti, li provo subito..solo che per ki come me nn è 1 esperto sn un tantino difficili..x questo suono quelli ke ho fatto ke sn sicuramente sbagliati...e poi cmq quando sarò esperto ed appena compro la kitarra elettrica magari farò quelli giusti 8) cmq mi sn bloccato cn questa canzone (seppur nn sia semplice) xkè sn un super appassionato dei red hot c.p e di liga, e voglio imparare le loro canzoni il prima possibile!!!:-) grazie sempre x la disponibilità raga...


...quelli tra palco e realtà...
zion982
 
Messaggi: 50



Torna a Accordi TAB Riff testo chords - Studiare canzoni


Chi c’è in linea

Visitano il forum: Nessuno e 4 ospiti