Scale

In questa sezione potete spiegare le vostre difficoltà e chiedere consigli sia tecnici che teorici in generale (non legati ad una canzone in particolare). Oppure proporre esercizi e lezioni per migliorare alla chitarra elettrica, acustica o classica...

Scale

Messaggiodi Platone

Da perfetto ignorante autodidatta stò cercando di imparare a suonare la chitarra...
Fino ad ora ho capito le scale maggiori

Immagine
-E|--------------------------------------------------------------
B|----------------------0--1-----------------------------------
G|-----------------0--2----------------------------------------
D|-------0--2--3----------------------------------------------
A|----3--------------------------------------------------------
+E|--------------------------------------------------------------
--
Immagine
E|--------------------------------------------------------------
B|--------------------------------------------------------------
G|--------------------2--4--5---------------------------------
D|------0--2--3--5--------------------------------------------
A|---3---------------------------------------------------------
E|--------------------------------------------------------------
--
Immagine
E|---------------------------5--7--8--------------------------
B|----------------5--6--8-------------------------------------
G|--------5--7------------------------------------------------
D|-------------------------------------------------------------
A|-------------------------------------------------------------
E|-------------------------------------------------------------
--

Immagine
E|--------------------------------------------------------------
B|--------------------------------------------------------------
G|--------------------------------------------------------------
D|-------------------7--9--10---------------------------------
A|----0--7--8--10---------------------------------------------
E|--8-----------------------------------------------------------
--
Immagine
E|--------------------------------------------------------------
B|-----------------------------10--12--13--------------------
G|----------------9--10--12----------------------------------
D|-----10--12-------------------------------------------------
A|--------------------------------------------------------------
E|--------------------------------------------------------------
--
Immagine
E|------------12--13--14-------------------------------------
B|--13--15----------------------------------------------------
G|--------------------------------------------------------------
D|--------------------------------------------------------------
A|----------------------------12--14--15---------------------
E|--------------------------------------------------------------
Questa è quella di Do Maggiore[C Major]
Con un +2(tasti) cambio tonalità e trovo quindi tutte le scale maggiori.
Fin qui ci siamo...
La mia domanda ora è.. per le minori???

Grazie per il vostro tempo passato a leggere queste mie realizzazioni(che so essere cavolate per voi ma io studio seriamente da 3/4 gg e sono conquiste per me)...


Platone
 
Messaggi: 26


Messaggiodi wordT

semplicemente per ricavare la scala di do maggiore hai seguito lo schema
t t s t t t s

qundi per avere la scala di do x esempio prendi il do...poi aggiungi un tono...poi un altro...poi un semitono...poi tono...tono...tono...semitoni....e la scala ottenuta è DO RE MI FA SOL LA SI....se i tuoi schemi che nn ho controllato sono corretti combaceranno queste note con i puntini...è lo stesso meccanismo per tutte le scale minori che però seguono lo schema t s t t s t t....ad esempio la scala di do è: DO RE RE# FA SOL SOL# LA# DO...cmq tutto è spiegato in maniere + dilungata nel topic costruire un scala....però spero di essere stato di aiuto 8)


wordT
 
Messaggi: 622

Re: Scale

Messaggiodi Never

non mi è chiara una cosa!!! le tab non corrispondono alle diteggiature della tastiera!! perchè? c'è un motivo?

qui trovi quello che cerchi... vai avanti nell'articolo...

http://chitarradaspiaggia.com/forum/viewtopic.php?t=65


"... la vita è come una scatola di cioccolatini... non sai mai quello che ti capita..." Forrest Gump

Imparare accordo do maggiore

Imparare accordo re maggiore
Never
 
Messaggi: 943
Località: Milano

Messaggiodi Platone

-E|------------------------------------------------------------
B|----------------------0--1-----------------------------------
G|-----------------0--2----------------------------------------
D|--------0--2--3----------------------------------------------
A|----3--------------------------------------------------------
+E|------------------------------------------------------------

E|------------------------------------------------------------
B|------------------------------------------------------------
G|--------------------2--4--5---------------------------------
D|------0--2--3--5--------------------------------------------
A|---3--------------------------------------------------------
E|------------------------------------------------------------





E|---------------------------5--7--8--------------------------
B|----------------5--6--8-------------------------------------
G|--------5--7------------------------------------------------
D|------------------------------------------------------------
A|------------------------------------------------------------
E|------------------------------------------------------------


E|------------------------------------------------------------
B|------------------------------------------------------------
G|------------------------------------------------------------
D|-------------------7--9--10---------------------------------
A|-------7--8--10---------------------------------------------
E|-8--10------------------------------------------------------


E|-----------------------------------------------------------
B|-----------------------------10--12--13--------------------
G|----------------9--10--12----------------------------------
D|----10--12-------------------------------------------------
A|-----------------------------------------------------------
E|-----------------------------------------------------------
--


Le ho controllate...ora sono ok( a parte l'ultima che nn ho ripostato)


Platone
 
Messaggi: 26

Re: Scale

Messaggiodi Platone

Never ha scritto:qui trovi quello che cerchi... vai avanti nell'articolo...

http://chitarradaspiaggia.com/forum/viewtopic.php?t=65


nun lo capisco bene sto articolo...soprattutto le immagini delle diteggiature... :cry: :cry:


Platone
 
Messaggi: 26

Re: Scale

Messaggiodi Never

Platone ha scritto:
Never ha scritto:qui trovi quello che cerchi... vai avanti nell'articolo...

http://chitarradaspiaggia.com/forum/viewtopic.php?t=65


nun lo capisco bene sto articolo...soprattutto le immagini delle diteggiature... :cry: :cry:


dammi qualche indicazione... che mi spigo meglio se occorre...

comunque le tue diteggiature continuano a non essere complete... infatti tutte le corde sono suonate... mentre tu ne salti qualcuna... ora devo capire se lo stai facendo apposta perchè tu le suoni così o perchè c'è un errore di fondo che allora però va corretto...


"... la vita è come una scatola di cioccolatini... non sai mai quello che ti capita..." Forrest Gump

Imparare accordo do maggiore

Imparare accordo re maggiore
Never
 
Messaggi: 943
Località: Milano

Re: Scale

Messaggiodi Platone

Never ha scritto:
comunque le tue diteggiature continuano a non essere complete... infatti tutte le corde sono suonate... mentre tu ne salti qualcuna... ora devo capire se lo stai facendo apposta perchè tu le suoni così o perchè c'è un errore di fondo che allora però va corretto...


Io le suono così e mi vengono...
Però io continuo a nn capire le immi delle diteggiature nel tuo post...sarò gnucco... :cry: :cry:
Immagino che i numeri siano le dita da usare...ma nn mi aiuta molto sapere questa cosa...


Platone
 
Messaggi: 26

Messaggiodi Platone

ho scoperto che maggiore e minore(naturale a quanto ho capito) sono così:

M: T T S T T T S

m: T S T T S T T

E che la m si forma sul 6° grado della M
Quindi io ho la scala maggiore di Re

Re(1) Mi(2) Fa#(3) Sol(4) La(5) Si(6) Do#(7) Re(8)

Da questa ottengo Si minore?
Una cosa tipo

Si(1) Do#(2) Re(3) Mi(4) Fa#(5) Sol(6) La(7) Si(8)

Poi devo trovarmi le diteggiature ma come discorso fila??


Platone
 
Messaggi: 26

Messaggiodi Never

Platone ha scritto:ho scoperto che maggiore e minore(naturale a quanto ho capito) sono così:

M: T T S T T T S

m: T S T T S T T

E che la m si forma sul 6° grado della M
Quindi io ho la scala maggiore di Re

Re(1) Mi(2) Fa#(3) Sol(4) La(5) Si(6) Do#(7) Re(8)

Da questa ottengo Si minore?
Una cosa tipo

Si(1) Do#(2) Re(3) Mi(4) Fa#(5) Sol(6) La(7) Si(8)

Poi devo trovarmi le diteggiature ma come discorso fila??


si che fila
però se una scala ha una certa diteggiatura e tu suoni solo 4 note su 10 non hai suonato la scala... ma un suo pezzo...
le tue tab sono la rappresentazione di ciò che ti piace suonare, e va benissimo... intendiamoci.
però per suonare la scala nella sua completezza (per come è la sua diteggiatura) allora occorre suonare tutte le note e non solo quelle che uno ha deciso di suonare...


"... la vita è come una scatola di cioccolatini... non sai mai quello che ti capita..." Forrest Gump

Imparare accordo do maggiore

Imparare accordo re maggiore
Never
 
Messaggi: 943
Località: Milano

Re: Scale

Messaggiodi Never

E|----------------------------------------------------3--5----------
B|-----------------------------------------3--5--6-----------------------
G|-------------------------------2--4--5---------------------------------
D|---------------------2--3--5--------------------------------------------
A|-----------2--3--5-----------------------------------------------------
E|--3--5----------------------------------------------------------

questa è la tab per la tua seconda diteggiatura...


"... la vita è come una scatola di cioccolatini... non sai mai quello che ti capita..." Forrest Gump

Imparare accordo do maggiore

Imparare accordo re maggiore
Never
 
Messaggi: 943
Località: Milano

Messaggiodi Platone

Never ha scritto:le tue tab sono la rappresentazione di ciò che ti piace suonare, e va benissimo... intendiamoci.
però per suonare la scala nella sua completezza (per come è la sua diteggiatura) allora occorre suonare tutte le note e non solo quelle che uno ha deciso di suonare...


Io non capisco come ottenere le diteggiature complete dalle tue img...sono gnorri?forse ma al momento nn le capisco...


Platone
 
Messaggi: 26

Re: Scale

Messaggiodi Platone

Never ha scritto:E|----------------------------------------------------3--5----------
B|-----------------------------------------3--5--6-----------------------
G|-------------------------------2--4--5---------------------------------
D|---------------------2--3--5--------------------------------------------
A|-----------2--3--5-----------------------------------------------------
E|--3--5----------------------------------------------------------

questa è la tab per la tua seconda diteggiatura...


alla fine sono quindi così??

e|----------------------------------------------------------0--1--3--
B|----------------------------------------------1--3-----------------
G|-----------------------------------0--2--4------------------------
D|------------------------0--2--3-----------------------------------
A|-------------0--2--3----------------------------------------------
E|--0--1--3---------------------------------------------------------


e|-------------------------------------------------------1--3--5---------
B|-----------------------------------------3--5--6-----------------------
G|-------------------------------2--4--5---------------------------------
D|--------------------2--3--5--------------------------------------------
A|-----------2--3--5-----------------------------------------------------
E|--3--5------------------------------------------------------------------





e|---------------------------------------------3--5--7------
B|---------------------------------------5--6---------------
G|------------------------------4--5--7---------------------
D|---------------------3--5--7------------------------------
A|------------3--5--7---------------------------------------
E|------5--7------------------------------------------------


e|-----------------------------------------------------7--8-10------
B|----------------------------------------------8-10----------------
G|------------------------------------7--9-10-----------------------
D|--------------------------7--9-10---------------------------------
A|----------------7--8-10-------------------------------------------
E|------7--8-10-----------------------------------------------------


e|-------------------------------------------------------8-10-12------
B|-----------------------------------------------10-12-----------------
G|------------------------------------9-10-12-------------------------
D|-------------------------9-10-12------------------------------------
A|--------------8-10-12-----------------------------------------------
E|------10-12----------------------------------------------------------


Platone
 
Messaggi: 26

Re: Scale

Messaggiodi Never

non le ho controllate ma mi sembrano giuste...

ripeto... se c'è un motivo perchè tu suoni solo le note che avevi segnalato va benissimo... ma non era completa la diteggiatura... ora lo è...!!
Bel lavoro..

anche perchè, come dicevamo da un'altra parte, la scala va imparata perchè è un pò l'alfabeto della musica... poi quallo che ci SUONI è un'altra cosa... la scala però da velocità, precisione, sonorità, senso musicale e timing...
da fare e rifare fino alla nausea ed oltre...
ciao...


"... la vita è come una scatola di cioccolatini... non sai mai quello che ti capita..." Forrest Gump

Imparare accordo do maggiore

Imparare accordo re maggiore
Never
 
Messaggi: 943
Località: Milano

Messaggiodi Platone

vale sempre il discorso di traslarle per ottenere le varie tonalità, giusto???
Ora se nn ho capito male per suonare le minori basta che trovo le diteggiature(ad esempio) per questa: Si Do# Re Mi Fa# Sol La Si??


Platone
 
Messaggi: 26

Messaggiodi Never

Platone ha scritto:vale sempre il discorso di traslarle per ottenere le varie tonalità, giusto???
Ora se nn ho capito male per suonare le minori basta che trovo le diteggiature(ad esempio) per questa: Si Do# Re Mi Fa# Sol La Si??


per semplificare... non hai bisogno di trovarle... ma di studiare qualche diteggiatura a memoria e ricordarti la posizione solo della T che sta per tonica... così saprai sempre che scala stai suonando... poi ti serve un pò di orcchio per inserirla nel giusto contesto...


"... la vita è come una scatola di cioccolatini... non sai mai quello che ti capita..." Forrest Gump

Imparare accordo do maggiore

Imparare accordo re maggiore
Never
 
Messaggi: 943
Località: Milano

Prossimo


Torna a Lezioni Esercizi e suggerimenti tecnici chitarra


Chi c’è in linea

Visitano il forum: Nessuno e 6 ospiti