dream on - aerosmith

Hai trovato gli accordi chords di una canzone ad orecchio e vorresti suggerirla? Oppure vuoi proporre la TAB per chitarra del tuo Riff preferito? il testo? Questo è il forum giusto! Anche per suggerimenti sul ritmo di una canzone. Ricordati di usare la funzione cerca...

dream on - aerosmith

Messaggiodi Eridanus04

qualcuno conosce le tab d questa canzone? compreso il riff?
grazie
Cellar Door
Eridanus04
Musicista bebè
Musicista bebè
 
Messaggi: 230


Messaggiodi mauz bitto

io ho trovato solo le tab della canzone (credo cover) di eminem.
http://www.911tabs.com/tabs/e/eminem/si ... nt_tab.htm
mauz bitto
Musicista guru
Musicista guru
 
Messaggi: 3531
Località: Bitonto (Ba)

Messaggiodi Wild Thing

si chiama dream on quella degli aerosmith.. sing for the moment è di eminem
"If the doors of perception were cleansed, everything would appear to man as it truly is, infinite"
Wild Thing
Musicista bebè
Musicista bebè
 
Messaggi: 447
Località: Universo< Mondo< Europa< Italia< Emilia-Romagna< Castiglione dei Pepoli (BO)

Messaggiodi noice

video aerosmith -> http://it.youtube.com/watch?v=sNzEQ8hG1 ... re=related
video cover -> http://it.youtube.com/watch?v=FoQ8tdzJ_Y8
questa è la versione che piace a me:
video R.J.Dio -> http://it.youtube.com/watch?v=z1cXkOsBzSQ

Codice: Seleziona tutto
Intro and verse:
e+-4-----4----|-3-----3----|-4-----4----|-3-----3----|
B+-6-----6----|-4-----4----|-3-----3----|-2--1--2--1-|
G+----5-----5-|----5-----5-|----5-----5-|------------|
D+------------|------------|------------|------------|
A+------------|------------|------------|------------|
E+------------|------------|------------|------------|

|-4-----4----|-6-----6----|--8-----8----|--8---------|
|-6-----6----|-8-----8----|--9-----9----|--9---------|
|----5-----5-|----5-----5-|-------------|--10--------|
|------------|------------|----10----10-|--10--------|
|------------|------------|-------------|------------|
|------------|------------|-------------|------------|

|-4-----4----|-3-----3----|--4-----4----|-3-----3----|
|-6-----6----|-4-----4----|--3-----3----|-2--1--2--1-|
|----5-----5-|----5-----5-|-----5-----5-|------------|
|------------|------------|-------------|------------|
|------------|------------|-------------|------------|
|------------|------------|-------------|------------|

|-4-----4----|-6-----6----|--8-----8----|--6---4---6-|
|-6-----6----|-6-----6----|--6-----6----|--6---6---6-|
|----5-----5-|----5-----5-|-------------|------------|
|------------|------------|-------------|------------|
|------------|------------|-------------|------------|
|------------|------------|-------------|------------|

|--8-----8----|-8\-6---6---|------------|------------|
|--9-----9----|-8\-6---6---|------------|------------|
|-------------|------------|-6--5--6--5-|-6--5--6--5-|
|-------------|------------|------------|------------|
|-------------|------------|------------|------------|
|-------------|------------|------------|------------|

                         
Lead Guitar:             
|-----------------|---------------------|---------------------------|
|-----------5/6/8-|-6/8/9-8/9/11-9h11p9-|-8h9p8-6h8p6-4h6p4--2-1/13-|
|-6/5/3-5-6-------|---------------------|---------------------------|
|-----------------|---------------------|---------------------------|
|-----------------|---------------------|---------------------------|
|-----------------|---------------------|---------------------------|

Guitar 2 or keyboard:

|-3-------3-------|-3-------3-----------|-3-----------3---------|
|-2---1---2---1---|-2---1---2----1------|-2-----1-----2-----1---|
|-----------------|---------------------|-----------------------|
|-----------------|---------------------|-----------------------|
|-----------------|---------------------|-----------------------|
|-----------------|---------------------|-----------------------|


In the verse is played the first line of the Intro:
And then:

|-4-----4----|-3-----3----|-4-----4----|-3-----3----|
|-6-----6----|-5-----5----|-6-----6----|-6-----6----|
|----5-----5-|----5-----5-|----5-----5-|----5-----5-|
|------------|------------|------------|------------|
|------------|------------|------------|------------|
|------------|------------|------------|------------|

|------------|------------|
|------------|------------|
|-5--6--5--6-|-5--6--5--6-|
|------------|------------|
|------------|------------|
|------------|------------|

Chorus:

F5          D#5   
I know what nobody knows
C#5                D#5
Where it comes and where it goes
F5          D#5             
I know it's everybody's sin
C#5                D#5
You got to lose to know how to win

Chord tabs

     F5         D#5        C#5     
|-------------------------------------|
|-------------------------------------|
|----10----------8----------6---------|
|----10----------8----------6---------|
|----8-----------6----------4---------|
|-------------------------------------|

VERSE 2

During verse 2 a second guitar plays:
|-----------------|-----------------|
|-----------------|-----------------|
|-------------1---|-----------------|
|---------------3-|~~~~~------------|
|-------1-2-3-----|-----------------|
|-1-3-4-----------|-----------------|


Chorus:

F5            D#5
Sing with me, sing for the years
C#5                    D#5
Sing for the laughter, sing for the tears
F5            D#5
Sing with me, if it's just for tofay
C#5            D#5   
Mabye tomorrow the good Lord will take you away

SOLO:
|------------|------------|
|------------|------------|
|-5--6--5--6-|-5--6--5--6-|
|------------|------------|
|------------|------------|
|------------|------------|


|---4-----4-----6-|-----6---------|-8-----8-----8/--|-13--------------|
|-----6-----6-----|-6-----6-------|---6-----6-------|-----------------|
|-5-----5-----5---|---5-----5---5-|-----5-----5-----|-----------------|
|-----------------|---------------|-----------------|-----------------|
|-----------------|---------------|-----------------|-----------------|
|-----------------|---------------|-----------------|-----------------|


|-8-----8---------|---8-------8-----|-----------------|
|-----6-----6-----|-6-----6------6--|-6---8--8b9r8----|
|-----------------|-----------------|-----------------|
|-----------------|-----------------|-----------------|
|-----------------|-----------------|-----------------|
|-----------------|-----------------|-----------------|

|---4-----4-----6-|-----6---------|-8-----8-----8/--|-13--------------|
|-----6-----6-----|-6-----6-------|---6-----6-------|-----------------|
|-5-----5-----5---|---5-----5---5-|-----5-----5-----|-----------------|
|-----------------|---------------|-----------------|-----------------|
|-----------------|---------------|-----------------|-----------------|
|-----------------|---------------|-----------------|-----------------|


|-8-----8---------|---8-------8-----|
|-----6-----6-----|-6-----6---------|
|-----------------|-----------------|
|-----------------|-----------------|
|-----------------|-----------------|
|-----------------|-----------------|

CHORUS X1

A second guitar is playing this during the chorus:

|-----------------|-----------------|
|-----------------|-----------------|
|--5--------------|--5--------------|
|-----3-3-3-3-----|-----5-5-5-5-----|
|-----------------|-----------------|
|-----------------|-----------------|

|-----------------|-----------------|
|-----------------|-----------------|
|-----------------|-----------------|
|--5--------------|--5--3-3-3-3-----|
|-----6-6-6-6-----|-----------------|
|-----------------|-----------------|

SOLO 2:

|-----------------|----------8------|------------------|----------------|
|-----------------|------------8-11-|-8----------------|-8-11b13--------|
|--8h9----8-9p8---|-8-10b12---------|----10-8---8-10b12|----------------|
|------10-------10|-----------------|---------10-------|----------------|
|-----------------|-----------------|------------------|----------------|
|-----------------|-----------------|------------------|----------------|

A#5, C5, C#5, D#5


|---12b14-------12b14------|----12b14-------12b14r12-|
|--------------------------|-------------------------|
|--------------------------|-------------------------|
|--------------------------|-------------------------|
|--------------------------|-------------------------|
|--------------------------|-------------------------|

|--13-11-------------------|-------------------------|
|---------13-11------------|-------------------------|
|----------------13-10/----|-8--8--------------------|
|--------------------------|------10-8-6-------------|
|--------------------------|-------------8-6~~~------|
|--------------------------|-------------------------|

A#5, C5, C#5, D#5

                                               
|-----------------|-------------------|-----------------|-----------------|
|-----------------|-------------4-4---|-6--------6-9-9-6|-9--11b12-11b12--|
|-----------1-1---|-3-1---1-3/5-----5-|----8-8-8--------|-----------------|
|-3-1---1-3------3|-----3-------------|-----------------|-----------------|
|-----3-----------|-------------------|-----------------|-----------------|
|-----------------|-------------------|-----------------|-----------------|

|------------------------------------|
|-11b12-11b12-11b12-12~~~~-----------|
|------------------------------------|
|------------------------------------|
|------------------------------------|
|------------------------------------|

A#5, C5, C#5, D#5, F5, G5, G#5, A#5(2)

Chord tabs:
A#5   C5   C#5   D#5   F5   G5   G#5   A#5(2)                             
|-----------------------------------------------------|
|-----------------------------------------------------|
|-3-----5----6----8-----10---12----13----15-----------|
|-3-----5----6----8-----10---12----13----15-----------|
|-1-----3----4----6-----8----10----11----13-----------|
|-----------------------------------------------------|

|------------------------------------|
|------------------------------------|
|------------------------------------|
|---11-10--11-10--11-10--11-10-------|
|------------------------------------|
|------------------------------------|

CHORUS X2

And at last..

|-3-------3-------|-3-------3-----------|-3-----------3---------|
|-2---1---2---1---|-2---1---2----1------|-2-----1-----2-----1---|
|-----------------|---------------------|-----------------------|
|-----------------|---------------------|-----------------------|
|-----------------|---------------------|-----------------------|
|-----------------|---------------------|-----------------------|

About the tab:

b   Bending
r   Release bend
h   Hammering on
p   Pulling off
/   Slide
~   Vibrato

da ultimate-guitar.com

un po' piu' complicata:
Codice: Seleziona tutto
Gtr I (E A D G B E) - 'Joe Perry - Lead / Rhythm w/dist'
Gtr II (E A D G B E) - 'Brad Whitford - Rhythm w/dist'

Intro
    Q=80
   4/4
    Gtr I
    E E E E E E E E    Q   E E E E E E   E E Q  E E E E
||--4---4---3---3---|--4---4---3---3---|-4---4--6---6---|
||o-6---6---4---4---|--3---3---2---2---|-6---6--6---6---|
||----5---5---5---5-|-(5)----5---5---5-|---5------5---5-|
||------------------|------------------|----------------|
||o-----------------|------------------|----------------|
||------------------|------------------|----------------|
  |-Rhy Fig 1
_______________  __________________
|1.            || 2.
  E E E E H         Q  E +E  E Q  E   Q  Q  E  Q  E
|-8---8---8-----||--8--8-(8)-6-4--6-|----8--8\-6----|
|-6---6---6----o||--6--6-(6)-6-6--6-|-9--9--9\-6--6-|
|---5---5-------||------------------|---------------|
|---------------||------------------|---------------|
|--------------o||------------------|---------------|
|---------------||------------------|---------------|
end Rhy Fig 1-|

  E E E E E E E E   S S S S S S S S S S S S S  S T  T S
|-----------------|-------------------------------------|
|-----------------|-----------5h6s8-6h8s9-8h9s11-9h11p9-|
|-6-5-6-5-6-5-6-5-|-6p5s3-5h6---------------------------|
|-----------------|-------------------------------------|
|-----------------|-------------------------------------|
|-----------------|-------------------------------------|


  T T T T T T T T T T T T S S  Q   +S   E.
|------------------------------------------|
|-8h9p8s6-6h8p6s4-4h6p4s2-2p1s13--(13)\----|
|------------------------------------------|
|------------------------------------------|
|------------------------------------------|
|------------------------------------------|


Verse 1 + 2
  $
  E E E E E E E E   Q  E E E E E E   E E E E E E E E   E E E E E E E E
|-4---4---3---3---|-4--4---3---3---|-4---4---3---3---|-4---4---3---3----|
|-6---6---4---4---|-3--3---2---2---|-6---6---4---4---|-3---3---2---2----|
|---5---5---5---5-|------x---5---5-|---5---5---5---5-|---5---5---5---5--|
|-----------------|----------------|-----------------|------------------|
|-----------------|----------------|-----------------|------------------|
|-----------------|----------------|-----------------|------------------|


                                                               To Coda
  E E E E E E E E   Q  Q  E E E E   E E E E E E E E   E E E E E E E E
|-4---4---3---3---|-4--4--3---3---|-4---4---3---3---|-4---4---3---3----||
|-6---6---4---4---|-3--3--2---2---|-6---6---4---4---|-3---3---2---2----||
|---5---5---5---5-|---------5---5-|---5---5---5---5-|---5---5---5---5--||
|-----------------|---------------|-----------------|------------------||
|-----------------|---------------|-----------------|------------------||
|-----------------|---------------|-----------------|------------------||


  E E E E E E E E   E E E E E E E E   E E E E E E E E   E E E E E E E E
|-4---4---3---3---|-4---4---3---3---|-----------------|------------------|
|-6---6---6---5---|-6---6---6---6---|-----------------|------------------|
|---5---5---5---5-|---5---5---5---5-|-6-5-6-5-6-5-6-5-|-6-5-6-5-6-5-6-5--|
|-----------------|-----------------|-----------------|------------------|
|-----------------|-----------------|-----------------|------------------|
|-----------------|-----------------|-----------------|------------------|


Chorus 1
  Gtr I
   Q.       E        Q.      E     Q.     E Q.      E
|--------------------------------|----------------------|
|--------------------------------|----------------------|
|-10-------10\-------------------|----------------------|
|-10-------10\-------8-------8\--|-6------6S8-------8---|
|--8--------8\-------6-------6\--|-4------4S6-------6---|
|--------------------------------|----------------------|
|-Rhy Fig 2
|
| Gtr II
|  Q    E.      +S   E  E E +E     E  E E E E  E E +E
|-------------------------6-(6)\-|---------------6-(6)\-|
|-------------------------6-(6)\-|------6--------6-(6)\-|
|-10---10------(10)\-8----8-(8)\-|-6----6-6-8----8-(8)\-|
|-10---10------(10)\-8----8-(8)\-|-6----6-6-6----8-(8)\-|
|--8----8-------(8)\-6--6-6-(6)\-|-4--4-4-4-6--6-6-(6)\-|
|--------------------------------|----------------------|


   E Q      E        Q.      E     Q.    E E Q    E
|--------------------------------|---------------------|
|--------------------------------|-----------6---------|
|--------------------------------|-----------8---------|
|-10-------10\-------8-------8\--|-6-----6S8------8----|
|----8------8\-------6-------6\--|-4-----4S6-----------|
|--------------------------------|---------------------|
|                                        end Rhy Fig 2-|
|
|  Q    E.      +S   E  E E +E     Q   E E E E E +E
|-------------------------6-(6)\-|-------------6-(6)\--|
|-------------------------6-(6)\-|-------------6-(6)\--|
|-10---10------(10)\-8----8-(8)\-|-6---6---8---8-(8)\--|
|-10---10------(10)\-8----8-(8)\-|-6---6---8---8-(8)\--|
|--8----8-------(8)\-6--6-6-(6)\-|-4---4-4-6-6-6-(6)\--|
|--------------------------------|---------------------|

Gtr II play Rhy Fig 1
  W                  H       S S S S S S S S
|-----------------|--------------------------|
|-----------------|--------------------------|
|-----------------|----------------------1---|
|-----------------|------------------------3-|
|-----------------|----------------1-2h3-----|
|-----------------|----------1-3-4-----------|


                        D.S. al Coda
   ~~~~~~~~~~~~~~~~~~~~~~
  +W                 +W
|------------------|-----------------||
|------------------|-----------------||
|------------------|-----------------||
|-(3)--------------|-(3)-------------||
|------------------|-----------------||
|------------------|-----------------||


Chorus 2 & 3 Gtr II play Rhy Fig 2 (1st 2 bars)
    &
      Q    E.    +S   E E E +E
||------------------------6-(6)\-|
||o-----------------------6-(6)\-|
||---10---10----(10)\-8---8-(8)\-|
||---10---10----(10)\-8---8-(8)\-|
||o---8----8-----(8)\-6-6-6-(6)\-|
||-------------------------------|

                       GtrI,II
                                 ~             ~~~
   E  E E E E E E +E     S S S S Q  S S S S E +E
|---------------6-(6)\-|-------------------------|
|-------6-------6-(6)\-|-------------------------|
|--6----6-6-8---8-(8)\-|-5----------5------------|
|--6----6-6-6---8-(8)\-|---3-3-3-3----5-5-5-5-(5)|
|--4--4-4-4-6-6-6-(6)\-|-------------------------|
|----------------------|-------------------------|


                                 _______________________________________
                                |1.
          ~~             ~~
  S S S S E. +S  S S S S E. +S      E E E E E E E E    E  E E E E E E E
|-------------------------------|-------------------|--------------------||
|-------------------------------|-------------------|--------------------||
|-5--------------5-3-3-3-3--(x)-|---6-5-6-5-6-5-6-5-|--6--5-6-5-6-5-6-5--||
|---6-6-6-6--(6)----------------|-------------------|--------------------||
|-------------------------------|-------------------|--------------------||
|-------------------------------|-------------------|--------------------||
|
|         ~~             ~~         ~~~~~~~~~~~~~~~~~~~~~~
| S S S S E. +S  S S S S Q        a W                 +W
|-------------------------------|-------------------|--------------------||
|-------------------------------|-------------------|--------------------||
|-5--------------5-3-3-3-3------|-3h5---------------|-(5)----------------||
|---6-6-6-6--(6)----------------|-------------------|--------------------||
|-------------------------------|-------------------|--------------------||
|-------------------------------|-------------------|--------------------||


  Gtr I
                                                      ~~~
  S S S S S S S S S S S S S S S S   S S S S S S S  S  Q.   E
|---4-----4-----6-----6-----6-----|-8-----8-----8s13-13------|
|-----6-----6-----6-----6-----6---|---6-----6----------------|
|-5-----5-----5-----5-----5-----5-|-----5-----5--------------|
|---------------------------------|--------------------------|
|---------------------------------|--------------------------|
|---------------------------------|--------------------------|


  E S S +S  E. S E S +S  E  S    E S S +S  E S Q     +E. +S
|-8---8-(8)------6-------------|-----8-(8)--------------------|
|---6-------6--6---6-(6)-6-----|-6-6-------8-8-8b9===(8)-(8)\-|
|--------------------------(5)-|------------------------------|
|------------------------------|------------------------------|
|------------------------------|------------------------------|
|------------------------------|------------------------------|


  S S E S S S S S S S S S S S S
|---4---4-----4-----6-----6-----|
|---------6-----6-----------6---|
|-5---------5-----5-----5-----5-|
|-------------------------------|
|-------------------------------|
|-------------------------------|


                    ~~~
  S S S S S S S  S  Q. E   E S S +S  E. S E S +E  E
|-6-----8-----8s13-13----|-8---8-(8)------8-----------||
|---8-----6--------------|---6-------6--6---6-(6)-6--o||
|-----5-----5------------|----------------------------||
|------------------------|----------------------------||
|------------------------|---------------------------o||
|------------------------|----------------------------||

  __________________
|2.
  Gtr I
    ~        ~~~
    Q  a    +E  E S S    S  S  S S  S S
|---------------------------------------|
|---------------------------------------|
|---5--5b6==(5)-5-8-8b9-------10-8----8-|
|-----------------------10-10------10---|
|---------------------------------------|
|---------------------------------------|
|
| Gtr II
|   ~~~~~~~~~~~~~~~~~~~~~~~~~~~~~~~~~~~~~
| a W
|---------------------------------------|
|---------------------------------------|
|-3h5-----------------------------------|
|---------------------------------------|
|---------------------------------------|
|---------------------------------------|



                                                      ~~~~~
   S      +S  S S  S S  S S S  S S  S    S S  a      +E     +E  Q   S S Q.    E
|-------------8------------------------------------------|------------------------|
|---------------8-11-8-------------------8---11b13==(11)r|=(11)-------------------|
|-10b12==(10)----------10-8------8-10b11---8-------------|------------------------|
|-----------------------------10-------------------------|----------3s5-5-----5/--|
|--------------------------------------------------------|------------------------|
|---------------------------8----------------------------|------------------------|
|
|~~~~~~~~
| +W                                                         Q    E E   Q   E E
|--------------------------------------------------------|------------------------|
|--------------------------------------------------------|--------------5---5-5---|
|-(5)----------------------------------------------------|---3----3-----5---5-5---|
|--------------------------------------------------------|---1----1-1---3---3-3---|
|--------------------------------------------------------|------------------------|
|--------------------------------------------------------|------------------------|
|
|                                                            Q    E E   H
|--------------------------------------------------------|------------------------|
|--------------------------------------------------------|------------------------|
|--------------------------------------------------------|---6----6-6---8---------|
|--------------------------------------------------------|---6----6-6---8---------|
|--------------------------------------------------------|---4----4-4---6---------|
|--------------------------------------------------------|------------------------|
                                                         |-Rhy Fig 3

                                                      ~~~~        ~~~~
  Q.    E Q  E +E      a     +Q    a     +Q    a     +Q    a     +Q
|-------------------|-------------------------------------------------|
|------------8-(8)\-|-16b18-(16)--16b18-(16)--16b18-(16)--16b18-(16)--|
|------------8-(8)\-|-------------------------------------------------|
|-6-----6S8--8-(8)\-|-------------------------------------------------|
|-------------------|-------------------------------------------------|
|-------------------|-------------------------------------------------|
|
| Q   Q   Q  Q                Q           Q           Q           Q
|-------------------|-------------------------------------------------|
|-------------------|-------------------------------------------------|
|-------------------|-------------------------------------------------|
|-3---3---3--3------|---------3-----------3-----------3-----------3---|
|-3---3---3--3------|---------3-----------3-----------3-----------3---|
|-1---1---1--1------|---------1-----------1-----------1-----------1---|
                                                        end Rhy Fig 3-|

with Rhy Fig 3
   a     +S   E  S  E  S       S S  S  S  S S  S  E
|----------------------------------------------------|
|-16b18-(16)-16-13-----------------------------------|
|------------------15-13b13.5------------------------|
|-----------------------------15---13----------------|
|-------------------------------------15-14-3--------|
|---------------------------------------------16-13\-|


  Q.    S S Q.    E   Q.    E Q.    E   S S S S S E S S S S S a  S S S  S
|-------------------|-----------------|------------------------------------|
|-------------------|-----------------|------------------------------------|
|-------------------|-6-----6S8-----8-|----------------------------8-8-----|
|-3-----3s5-5-----5S|=6-----6S8-----8-|-----------6---8-6---6-8s10-----10--|
|-------------------|-----------------|-8-6---6-8---8-----8----------------|
|-------------------|-----------------|-----8------------------------------|


   S  S  S  S  S  S  S  S  S  S  S      S  S  S  S  +S
|---------------------------------------------------------|
|---------------------------------------------------------|
|----13-13-------13-13-15-13-15-15b17==15-15-15-15-(15)r\-|
|-15-13-13-13-15-13-13-15-13-15-15b17==15-15-15-----------|
|---------------------------------------------------------|
|---------------------------------------------------------|

with Rhy Fig 3 (1st 2 bars)
  Q.    E Q.   E   Q.    S S Q.    E
|----------------|--------------------|
|----------------|--------------------|
|----------------|--------------------|
|-3-----3--------|--------------------|
|-1-----1-3----3-|-4-----4s6-6-----6--|
|---------3----3-|-4-----4s6-6-----6--|



   Q.   S  S  Q.    E    Q.    E  Q.    E
|---------------------|--------------------|
|---------------------|--------------------|
|---------------------|--------------------|
|---------------------|----------------15\-|
|-/8----8s10-10----10-|-11----11S13--------|
|-/8----8s10-10----10-|-11----11S13----13\-|
|
|  Q.   E     Q.    E    Q.    E  H

|---------------------|--------------------|
|---------------------|--------------------|
|---------------------|--------------------|
|---------------------|--------------------|
|--3----3-----5-----5-|--6-----6--8--------|
|--1----1-----3-----3-|--4-----4--6--------|


   e  e  e  e  e  e  e  e    e  e  e  e  E  E  E  E
|-------------------------|-------------------------|
|-------------------------|-------------------------|
|-------------------------|-------------------------|
|-10-10-10-10-10-10-10-10-|-10-10-10-10-10-10-10-10-|
|-10-10-10-10-10-10-10-10-|-10-10-10-10-10-10-10-10-|
|--8--8--8--8--8--8--8--8-|--8--8--8--8--8--8--8--8-|


Out-Chorus Gtr II play Rhy Fig 2
   Q    E.      +S   Q   E.    +S
|-----------------------------------|
|--9----9-------(9)\-----8-----(8)\-|
|-10---10------(10)\-8---8-----(8)\-|
|-10---10------(10)\-8---8-----(8)\-|
|--8----8-------(8)\-6---6-----(6)\-|
|-----------------------------------|



  Q   Q   E  E Q      E E  E  +E   E  E E E
|--------------6---|--------------------6----|
|-6---6--------6---|-------9--(9)\------6----|
|-6---6--------8---|-10---10-(10)\-8----8-8\-|
|-6---6--------8---|-10---10-(10)\-8----8-8\-|
|-4---4---6--6-6---|--8-8--8--(8)\-6--6-6-6\-|
|------------------|-------------------------|



  Q.    E E E Q         E E  E.  +S   E E E E    Q  E E E E E E
|---------6---6------|--------------------6----|--------6---6---|
|-6-----6-6---6------|-------9---(9)\-----6----|-6--6-6-6---6---|
|-6-----6-8---8------|------10--(10)\-----8-8\-|-6--6-6-8---8---|
|-6-----6-8---8------|-10---10--(10)\-8---8-8\-|-6--6-6-8---8---|
|-4-----4-6-6-6------|--8-8--8---(8)\-6-6-6-6\-|-4--4-4-6-6-6---|
|--------------------|-------------------------|----------------|



  Gtrs I, II
          ~              ~                ~~             ~
  S S S S E +E   S S S S E +E     S S S S E. +S  S S S S Q
|-------------------------------|---------------------------|
|-------------------------------|---------------------------|
|-5--------------5--------------|-5--------------5-3-3-3-3--|
|---3-3-3-3-(3)/---5-5-5-5-(5)/-|---6-6-6-6--(6)------------|
|-------------------------------|---------------------------|
|-------------------------------|---------------------------|


    ~~~~~~~~~~~~~~~
  a W          +W           +W
|------------|------------|--------*|
|------------|------------|--------*|
|-3h5--------|-(5)--------|-(5)----*|
|------------|------------|--------*|
|------------|------------|--------*|
|------------|------------|--------*|

da http://www.mikesguitarsite.co.uk/

ps. il titolo è "Dream On".. come ha detto Wild Thing :)
"i plettri sono fatti per essere persi, dimenticati, fregati agli amici, scambiati come fiches del casinò.. lavati con i jeans.." [cit. Mario]

Guida ai plettri per chitarra
Avatar utente
noice
Ricercatore CDS
Ricercatore CDS
 
Messaggi: 1718
Località: Ischia

Re: dream on - aerosmith

Messaggiodi Velor

Che canzone fantastica... in più rende un casino..


Il mio gruppo è quasi pronto....! Mi servono solo un chitarrista, un bassista, un batterista, un tastierista, e un cantante XD
Avatar utente
Velor
Musicista bebè
Musicista bebè
 
Messaggi: 205



Torna a Accordi TAB Riff testo chords - Studiare canzoni


Chi c’è in linea

Visitano il forum: Nessuno e 19 ospiti