FFD - La ragazza dei quartieri alti

Hai trovato gli accordi chords di una canzone ad orecchio e vorresti suggerirla? Oppure vuoi proporre la TAB per chitarra del tuo Riff preferito? il testo? Questo è il forum giusto! Anche per suggerimenti sul ritmo di una canzone. Ricordati di usare la funzione cerca...

FFD - La ragazza dei quartieri alti

Messaggiodi roger88

CIAO IO SUONO DA UN BEL PO CON UN GRUPPO MA NON RIESCO A TIRARMI GIù AD ORECCHIO IL TAB DI QUESTA CANZONE MI POTETE AIUTARE LA CANZONE E DEGLI(FFD) ILòTITOLO E (RAGAZZA DEI QUARTIERI ALTI) GRAZIE AIUTATEMI!!!!!!!


roger88
 
Messaggi: 3


Messaggiodi noice

richiesta un po' vecchiotta..ma puo' sempre servire
video -> http://youtube.com/watch?v=zpa33noRsJQ
Codice: Seleziona tutto
Intro: (ohne Verzerrer)
   C                      a
e|-0--0-0--0-1--0--0--0--|-0--0-0--0-1--0--0--0--|.
h|-1--1-1--1-1--1--3--1--|-1--1-1--1-1--1--3--1--|.
g|-0--0-0--0-0--0--0--0--|-2--2-2--2-2--2--2--2--|.
D|-2---------------------|-2---------------------|.
A|-3---------------------|-0---------------------|.
E|-----------------------|-----------------------|.

   F                      G
.|------------------0-0--|-----------------------|
.|-1--1-1--1-1--3--31-13-|-3--3-3--3-3--5--3-3-3-|
.|-2--2-2--2-2--2--22-22-|-4--4-4--4-4--4--4-4-4-|
.|-3--3-3--3-3--3--3---3-|-5--5-5--5-5--5--5-5-5-|
.|-----------------------|-----------------------|
.|-----------------------|-----------------------|


Intro/Outro-Riff:
   C                A
e|----------------|----------------|.
h|-5---6--5-------|/5-5-55-6-5-----|.
g|-----------7--5-|------------7-5-|.
D|----------------|----------------|.
A|----------------|----------------|.
E|----------------|----------------|.

   F                G
.|----------------|-----------------|
.|/5-5-55-6-5-----|-------5-6-55----|
.|------------7-5-|-7-77-7-------77-|
.|----------------|-----------------|
.|----------------|-----------------|
.|----------------|-----------------|



Strophe 1: C
                                       A
T'ho incontrata un pomeriggio sotto i portici del centro
F                           G                  C
Tu guardavi le vetrine e io non ci stavo dentro
                       A
Poi mi saluti col tuo modo un po' garbato
F                             G            C
Io non so che cosa dire, ho appena vomitato
                           A
Mi piaceva il tuo profumo di Dolce e Gabbana
   F                              G
A ma mi puzzano le ascelle e poi bevo birra a canna-na-na



Refrain:
F         G         C        A    F
Io che ti penso ma poi mi rispondo
           G         C
Tu non sarai mai mia
          A           G
Ragazza dei quartieri alti
                          C   A F
Na-na-na-na, na-na-na-na-na
    C   A F    C   A F     G
Hey,        ho,        hey.



Strophe 2: C
                           A
Ricordammo i tempi che eravamo in classe insieme
F                           G              C
Ti facevi interrogare, io uscivo per fumare
                             A
Poi mi racconti ciò che hai fatto in questi anni
F                           G              C
Ti sei quasi laureata ed io vado a lavorare
                        A
Poi te ne vai da sola, senza quasi una parola
F                                  G
Me ne resto li a guardarti con un gran nodo alla gola



(Refrain)



Gitarren-Solo: [02:05] (p=P.M., .= mehr oder weniger staccato)
e|-----------------|-----------------|--------------------|.
h|---------6r5---5-|---------6r5---5-|---------6--5--8--6-|.
g|-5-5-7r5-----5---|-x-5-7r5-----5---|-5-5-7r5------------|.
D|-----------------|-----------------|--------------------|.
A|-----------------|-----------------|--------------------|.
E|-----------------|-----------------|--------------------|.
   p p                 p               p p     .  .  .  .

e|--------------------|-----------------------|
h|---------8--6--5--6-|---------5-6-5-3h5r3---|
g|-5-5-7r5------------|-5-5-5-7-------------5-|
D|--------------------|-----------------------|
A|--------------------|-----------------------|
E|--------------------|-----------------------| x2
   p p     .  .  .  .   p p . . . . .     . .



Strophe 3: C
                     A
Tu non sarai mai mia
                     F
Non sei fatta per me
                     G                 C
Perchè siamo così diversi, na-na-na-na
                     A
Non sei fatta per me
                     F
Tu non sarai mai mia
                      G                 C
Ragazza dei quartieri alti, na-na-na-na
                                A
Forse è meglio la ragazza che sta nel mio quartiere
F                          G -
Non ha i modi raffinati, però mi offre da bere



(Refrain)


Akkorde:
   C A F G
e|---------|
h|-5-------|
g|-5-6-2-4-|
D|-5-7-3-5-|
A|-3-7-3-5-|
E|---5-1-3-|

da http://www.fliegenklatsche.org/tabs/ffd ... i_alti.txt

ps. bisognerebbe modificare il titolo del post..


"i plettri sono fatti per essere persi, dimenticati, fregati agli amici, scambiati come fiches del casinò.. lavati con i jeans.." [cit. Mario]

Guida ai plettri per chitarra
noice
 
Messaggi: 1718
Località: Ischia

Messaggiodi Mauro80

Il nome del gruppo è "FFD", giusto?


Mauro80
 
Messaggi: 7933
Località: TO

Messaggiodi noice

si.. FFD - La ragazza dei quartieri alti :)


"i plettri sono fatti per essere persi, dimenticati, fregati agli amici, scambiati come fiches del casinò.. lavati con i jeans.." [cit. Mario]

Guida ai plettri per chitarra
noice
 
Messaggi: 1718
Località: Ischia

Messaggiodi Mauro80

Modificheto :)


Mauro80
 
Messaggi: 7933
Località: TO



Torna a Accordi TAB Riff testo chords - Studiare canzoni


Chi c’è in linea

Visitano il forum: Nessuno e 19 ospiti