Accordi e tab La grange - zz top

Hai trovato gli accordi chords di una canzone ad orecchio e vorresti suggerirla? Oppure vuoi proporre la TAB per chitarra del tuo Riff preferito? il testo? Questo è il forum giusto! Anche per suggerimenti sul ritmo di una canzone. Ricordati di usare la funzione cerca...

Accordi e tab La grange - zz top

Messaggiodi max

ciao raga....vorrei avere tutto ke si può trovare su questa song x favore mi serve urgentemente....... :x




max
 
Messaggi: 25


Messaggiodi SoundOfDreams

Dei zz top? Penso di si... ti modifico il titolo visto che devi aggiungere anche l'artista.







La tab è questa

Codice: Seleziona tutto
                                  La Grange                                     


Guitar 1
Tab. E-Bow 75



                                                                           
E||-----------------------|------------------------|-----------------------|
B||-----------------------|------------------------|-----------------------|
G||--2--2----2----2----2--|----2-------2-----5-----|--5b-2----2----2----2--|
D||--2--2----2----2----2--|----2-------5-----2-----|--2--2----2----2----2--|
A||--0-------0----0----0--|----0----0-----0-----0--|----------0----0----0--|
E||-----------------------|------------------------|-----------------------|


                                                                         
------------------------|-----------------------|------------------------|
------------------------|-----------------------|------------------------|
----2-------2-----5-----|--5b-2----2----2----2--|----2-------2-----5-----|
----2-------5-----2-----|--2--2----2----2----2--|----2-------5-----2-----|
----0----0-----0-----0--|----------0----0----0--|----0----0-----0-----0--|
------------------------|-----------------------|------------------------|


                                                                       
-----------------------|-----------------------|-----------------------|
-----------------------|-----------------------|-----------------------|
--5b-2----2----2----2--|----2----2----------2--|-----2----2----2----2--|
--2--2----2----2----2--|----2----2----------2--|-----2----2----2----2--|
----------0----0----0--|----0-------3----5-----|--0-------0----0----0--|
-----------------------|-----------------------|-----------------------|


                                                                       
-----------------------|-----------------------|-----------------------|
-----------------------|-----------------------|-----------------------|
----2----2----------2--|-----2----2----2----2--|----2----2----------2--|
----2----2----------2--|-----2----2----2----2--|----2----2----------2--|
----0-------3----5-----|--0-------0----0----0--|----0-------3----5-----|
-----------------------|-----------------------|-----------------------|


                                                                       
-----------------------|-----------------------|-----------------------|
-----------------------|-----------------------|-----------------------|
-----2----2----2----2--|----2----2----------2--|-----2----2----2----2--|
-----2----2----2----2--|----2----2----------2--|-----2----2----2----2--|
--0-------0----0----0--|----0-------3----5-----|--0-------0----0----0--|
-----------------------|-----------------------|-----------------------|


                                                                       
-----------------------|-----------------------|-----------------------|
-----------------------|-----------------------|-----------------------|
----2----2----------2--|-----2----2----2----2--|----2----2----------2--|
----2----2----------2--|-----2----2----2----2--|----2----2----------2--|
----0-------3----5-----|--0-------0----0----0--|----0-------3----5-----|
-----------------------|-----------------------|-----------------------|


                                                                       
-----------------------|-----------------------|-----------------------|
-----------------------|-----------------------|-----------------------|
-----2----2----2----2--|----2----2----------2--|-----2----2----2----2--|
-----2----2----2----2--|----2----2----------2--|-----2----2----2----2--|
--0-------0----0----0--|----0-------3----5-----|--0-------0----0----0--|
-----------------------|-----------------------|-----------------------|


                                                                             
-----------------------|-----------------------|------------------|----|----|
-----------------------|-----------------------|------------------|----|----|
----2----2----------2--|-----2----2----2----2--|------------------|----|----|
----2----2----------2--|-----2----2----2----2--|------------------|----|----|
----0-------3----5-----|--0-------0----0----0--|------------------|----|----|
-----------------------|-----------------------|------------------|----|----|


                                                                               
----|----|----|----|----|----|----|----|----|----|----|----|----|----|----|----|
----|----|----|----|----|----|----|----|----|----|----|----|----|----|----|----|
----|----|----|----|----|----|----|----|----|----|----|----|----|----|----|----|
----|----|----|----|----|----|----|----|----|----|----|----|----|----|----|----|
----|----|----|----|----|----|----|----|----|----|----|----|----|----|----|----|
----|----|----|----|----|----|----|----|----|----|----|----|----|----|----|----|


                                                                               
----|----|----|----|----|----|----|----|----|----|----|----|----|----|----|----|
----|----|----|----|----|----|----|----|----|----|----|----|----|----|----|----|
----|----|----|----|----|----|----|----|----|----|----|----|----|----|----|----|
----|----|----|----|----|----|----|----|----|----|----|----|----|----|----|----|
----|----|----|----|----|----|----|----|----|----|----|----|----|----|----|----|
----|----|----|----|----|----|----|----|----|----|----|----|----|----|----|----|


                                                                               
----|----|----|----|----|----|----|----|----|----|----|----|----|----|----|----|
----|----|----|----|----|----|----|----|----|----|----|----|----|----|----|----|
----|----|----|----|----|----|----|----|----|----|----|----|----|----|----|----|
----|----|----|----|----|----|----|----|----|----|----|----|----|----|----|----|
----|----|----|----|----|----|----|----|----|----|----|----|----|----|----|----|
----|----|----|----|----|----|----|----|----|----|----|----|----|----|----|----|


                                                                     
----|----|----|----|----|----|----|----|----|----|----|----|----|----|
----|----|----|----|----|----|----|----|----|----|----|----|----|----|
----|----|----|----|----|----|----|----|----|----|----|----|----|----|
----|----|----|----|----|----|----|----|----|----|----|----|----|----|
----|----|----|----|----|----|----|----|----|----|----|----|----|----|
----|----|----|----|----|----|----|----|----|----|----|----|----|----|


                                                                         
-----------------------|------------------------|-----------------------|
-----------------------|------------------------|-----------------------|
--2--2----2----2----2--|----2-------2-----5-----|--5b-2----2----2----2--|
--2--2----2----2----2--|----2-------5-----2-----|--2--2----2----2----2--|
--0-------0----0----0--|----0----0-----0-----0--|----------0----0----0--|
-----------------------|------------------------|-----------------------|


                                                                         
------------------------|-----------------------|------------------------|
------------------------|-----------------------|------------------------|
----2-------2-----5-----|--5b-2----2----2----2--|----2-------2-----5-----|
----2-------5-----2-----|--2--2----2----2----2--|----2-------5-----2-----|
----0----0-----0-----0--|----------0----0----0--|----0----0-----0-----0--|
------------------------|-----------------------|------------------------|


                                                                             
-----------------------|-----------------------|----|----|----|----|----|----|
-----------------------|-----------------------|----|----|----|----|----|----|
--5b-2----2----2----2--|----2----2----------2--|----|----|----|----|----|----|
--2--2----2----2----2--|----2----2----------2--|----|----|----|----|----|----|
----------0----0----0--|----0-------3----5-----|----|----|----|----|----|----|
-----------------------|-----------------------|----|----|----|----|----|----|


                                                                               
----|----|----|----|----|----|----|----|----|----|----|----|----|----|----|----|
----|----|----|----|----|----|----|----|----|----|----|----|----|----|----|----|
----|----|----|----|----|----|----|----|----|----|----|----|----|----|----|----|
----|----|----|----|----|----|----|----|----|----|----|----|----|----|----|----|
----|----|----|----|----|----|----|----|----|----|----|----|----|----|----|----|
----|----|----|----|----|----|----|----|----|----|----|----|----|----|----|----|


                                                                               
----|----|----|----|----|----|----|----|----|----|----|----|----|----|----|----|
----|----|----|----|----|----|----|----|----|----|----|----|----|----|----|----|
----|----|----|----|----|----|----|----|----|----|----|----|----|----|----|----|
----|----|----|----|----|----|----|----|----|----|----|----|----|----|----|----|
----|----|----|----|----|----|----|----|----|----|----|----|----|----|----|----|
----|----|----|----|----|----|----|----|----|----|----|----|----|----|----|----|


                                                                               
----|----|----|----|----|----|----|----|----|----|----|----|----|----|----|----|
----|----|----|----|----|----|----|----|----|----|----|----|----|----|----|----|
----|----|----|----|----|----|----|----|----|----|----|----|----|----|----|----|
----|----|----|----|----|----|----|----|----|----|----|----|----|----|----|----|
----|----|----|----|----|----|----|----|----|----|----|----|----|----|----|----|
----|----|----|----|----|----|----|----|----|----|----|----|----|----|----|----|


                               
----|----|----|----|----|----||
----|----|----|----|----|----||
----|----|----|----|----|----||
----|----|----|----|----|----||
----|----|----|----|----|----||
----|----|----|----|----|----||




SoundOfDreams
 
Messaggi: 12638
Località: Villa Literno (Caserta)

Messaggiodi SoundOfDreams

Codice: Seleziona tutto
                                  La Grange                                     


Guitar 3
Tab. E-Bow 75



                                                                               
E||------|------|------|------|------|------|------|------|------|------|------|
B||------|------|------|------|------|------|------|------|------|------|------|
G||------|------|------|------|------|------|------|------|------|------|------|
D||------|------|------|------|------|------|------|------|------|------|------|
A||------|------|------|------|------|------|------|------|------|------|------|
E||------|------|------|------|------|------|------|------|------|------|------|


                                                                             
------|------|------|------|------|------|------|------|------|------|------|
------|------|------|------|------|------|------|------|------|------|------|
------|------|------|------|------|------|------|------|------|------|------|
------|------|------|------|------|------|------|------|------|------|------|
------|------|------|------|------|------|------|------|------|------|------|
------|------|------|------|------|------|------|------|------|------|------|


                                                                             
------|------|------|------|------|------|------|------|------|------|------|
------|------|------|------|------|------|------|------|------|------|------|
------|------|------|------|------|------|------|------|------|------|------|
------|------|------|------|------|------|------|------|------|------|------|
------|------|------|------|------|------|------|------|------|------|------|
------|------|------|------|------|------|------|------|------|------|------|


                                                                             
------|------|------|------|------|------|------|------|------|------|------|
------|------|------|------|------|------|------|------|------|------|------|
------|------|------|------|------|------|------|------|------|------|------|
------|------|------|------|------|------|------|------|------|------|------|
------|------|------|------|------|------|------|------|------|------|------|
------|------|------|------|------|------|------|------|------|------|------|


                                                 
------|------|------|------|--------------------|
------|------|------|------|--11~---------------|
------|------|------|------|--------------------|
------|------|------|------|--------------------|
------|------|------|------|--------------------|
------|------|------|------|--------------------|


                                                                               
--8-----------------------------------------|---------------------------------|
-----11--8--11--8------8--------------------|---------------------------------|
-------------------10-----8------10--8------|---------------------------------|
-----------------------------10---------10--|--10--10~--------------9---------|
--------------------------------------------|----------------8h-10---------6--|
--------------------------------------------|---------------------------------|


                                                                 
--------------------------------|--------------------------------|
--------------------------------|--------------------------------|
--------------------------------|----------------8b--------------|
--10-----------------8----------|--10----10~---------------------|
------------8h-10-------8----6--|---------------------------8h10-|
--------------------------------|--------------------------------|


                                                                   
---------------------------------|--------------------------------|
---------------------------------|--------------------------------|
---------------------------------|--------------------------------|
------8--------------------------|-------------8------------------|
---------8----6--8----6----------|-------10-------8----6--8----6--|
-------------------------8----6--|--8-----------------------------|


                                                                       
--------------------------|-------------------------------------------|
--------------------------|--11------11------11------11---------------|
--------------------11----|------12------12------12--------10----8b---|
--10----10~---------------|-------------------------------------------|
--------------------------|-------------------------------------------|
--------------------------|-------------------------------------------|


                                                                       
------------------------------------|----------------------------------|
------------------------------------|----------------------------------|
------------------------------------|----------------------------------|
--10~------------8------------------|----------------------------------|
--------8/-10-------8----6--8----6--|----------------6-----6--8--6--8/-|
------------------------------------|--8----8--6--8-----8--------------|


                                                               
--------------------------------|------------------------------|
--------------------------------|------------------------------|
---------------------------8b---|-----------------------8b-----|
--------8--10--------10---------|--10~---10----8--10-----------|
--10-------------10-------------|------------------------------|
--------------------------------|------------------------------|


                                                       
--------------------------|---------------------------|
--------------------------|---------------------------|
------8~---------8--------|--8b---8--8----------------|
----------------------10--|---------------10~---------|
--------------------------|---------------------------|
--------------------------|---------------------------|


                                         
----------------------------------------|
----------------11--11----11--------11--|
------10/-12------------------12--------|
----------------------------------------|
----------------------------------------|
----------------------------------------|


                                       
---------------------------------------|
--11--------11----11-------------------|
--------12------------10----8--10b-----|
---------------------------------------|
---------------------------------------|
---------------------------------------|


                                               
-----8----------------------------------------|
--8-----11--8------8--------------------------|
---------------10-----8------10----10------8--|
-------------------------10-----10-----10-----|
----------------------------------------------|
----------------------------------------------|


                                                                       
------------------------------------|---------------------------------|
------------------------------------|---------------------------------|
------------------------------------|---------------------------------|
--10----8-10------------------------|--------------8--8----8----------|
-----10------10--9--8--6------------|-------8/-10-------------8----6--|
----------------------------8----6--|--8~-----------------------------|


                                                                             
---------------------------|------------------------------------------------|
---------------------------|--11------11------11------11------11--------11--|
----------------8----12----|------12------12------12------12------12--------|
--10----10~----------------|------------------------------------------------|
---------------------------|------------------------------------------------|
---------------------------|------------------------------------------------|


                                           
------------------------------------------|
--------11------11------11----------11----|
--12--------12------12------12------------|
------------------------------------------|
------------------------------------------|
------------------------------------------|


                                               
----------------------------------------------|
--------11------11------11------11--------11--|
--12--------12------12------12------12--------|
----------------------------------------------|
----------------------------------------------|
----------------------------------------------|


                                               
----------------------------------------------|
--------11------11------11------11--------11--|
--12--------12------12------12------12--------|
----------------------------------------------|
----------------------------------------------|
----------------------------------------------|


                                                                               
----------------------------------------|--------------------------------------|
--------11------11----------------------|----------------------11------11------|
--12--------12--------10----8-----------|----------------12--------12------12--|
-------------------------------10----8--|--10----10~---------------------------|
----------------------------------------|--------------------------------------|
----------------------------------------|--------------------------------------|


                                             
--------------------------------------------|
--11------11------11----------11--------11--|
------12------12--------12--------12--------|
--------------------------------------------|
--------------------------------------------|
--------------------------------------------|


                                               
----------------------------------------------|
--------11------11------11------11------11----|
--12--------12------12------12------12--------|
----------------------------------------------|
----------------------------------------------|
----------------------------------------------|


                                           
------------------------------------------|
--------11------11----------11------------|
--12--------12--------12----------11/-12--|
------------------------------------------|
------------------------------------------|
------------------------------------------|


                                                                         
---------------------------------------|--------------------------------|
--11------------11---------------------|--------------------8--10-------|
--------11/-12--------10----8----------|------------8/-9-------------9--|
---------------------------------10----|--10~---------------------------|
---------------------------------------|--------------------------------|
---------------------------------------|--------------------------------|


                                                                           
--8/---------------|------|------|------|------|------|------|------|------|
-------------------|------|------|------|------|------|------|------|------|
-------------------|------|------|------|------|------|------|------|------|
-------------------|------|------|------|------|------|------|------|------|
-------------------|------|------|------|------|------|------|------|------|
-------------------|------|------|------|------|------|------|------|------|


                                                                           
------|------|------|------|------|------|------|--------------------------|
------|------|------|------|------|------|------|--------------------------|
------|------|------|------|------|------|------|--------------------------|
------|------|------|------|------|------|------|---------7p-5h-7----------|
------|------|------|------|------|------|------|--------------------------|
------|------|------|------|------|------|------|----x---------------------|


                                                                     
---------------------------|------------------|----------------------|
---------------------------|------------------|------8b-----8b-------|
------8--8b----------------|------------------|----------------------|
------------------10----7--|------------------|----------------------|
---------------------------|------------------|----------------------|
---------------------------|------------------|----------------------|


                                                     
--------------------------|--------------------------|
--8b---8~---------8r---5--|--8----8~---------8r---5--|
--------------------------|--------------------------|
--------------------------|--------------------------|
--------------------------|--------------------------|
--------------------------|--------------------------|


                                                         
--------------------------------|-----------------------|
--8----5------------------------|-----------------------|
------------7----5b---7----5b---|---------------5--7b---|
--------------------------------|--7~-------------------|
--------------------------------|-----------------------|
--------------------------------|-----------------------|


                                                           
-------------------------------|--------------------------|
------5----8-------------------|--------------------------|
----------------7b---7----5b---|------5b----------5----7b-|
-------------------------------|-----------7~-------------|
-------------------------------|--------------------------|
-------------------------------|--------------------------|


                                                           
-------------------------------|--------------------------|
-------------------------------|--------------------------|
------7b---7b---7b---7b---7b---|--7b---5b-----------------|
-------------------------------|------------------7----5--|
-------------------------------|--------------------------|
-------------------------------|--------------------------|


                                                         
-----------------------------|---------------------------|
-----------------------------|---------------------------|
---------5b-----7----5----7b-|----------7r-5--7--7--5b---|
--7--------------------------|---------------------------|
-----------------------------|---------------------------|
-----------------------------|---------------------------|


                                                   
----------------------|----------------------------|
----------------------|----------------------------|
--5r------------------|------------12--14b---------|
-----------7~---------|------14--------------------|
----------------------|----------------------------|
----------------------|----------------------------|


                                                               
--------------------------------|-----------------------------|
------------------------13b-----|------13----10---------------|
----12----14----14--------------|--------------------7/-8/-9--|
--------------------------------|-----------------------------|
--------------------------------|-----------------------------|
--------------------------------|-----------------------------|


                                                             
----------------------------------|----------------------5--|
--8-------------------------------|----------------5--7-----|
-------7----------7b---7----------|-------------------------|
------------10--------------10----|--7~-------7/------------|
----------------------------------|-------------------------|
----------------------------------|-------------------------|


                                                                         
--------------------------|----------------------|----------------------|
--7----5------------------|----------------------|----------------------|
------------7b-----5b-----|----------------------|----------------------|
--------------------------|--7----5--------------|----------------------|
--------------------------|------------5----3----|--5----3----5----3----|
--------------------------|----------------------|----------------------|


                                                     
-------------------------|---------------------------|
-------------------------|---------------------------|
-------5----7~---5-------|--7----6--7----5----7b-----|
--7~------------------7--|---------------5-----------|
-------------------------|---------------------------|
-------------------------|---------------------------|


                                                             
------------------------------|------------------------------|
------------------------------|------------------------------|
--7b-----7b-----7b-----7b-----|--7b-----7b-----7b-----7b-----|
------------------------------|------------------------------|
------------------------------|------------------------------|
------------------------------|------------------------------|


                                                             
------------------------------|------------------------------|
------------------------------|------------------------------|
--7b-----7b-----7b-----7b-----|--7b-----7b-----7b-----7b-----|
------------------------------|------------------------------|
------------------------------|------------------------------|
------------------------------|------------------------------|


                                                         
-------------------------------|-------------------------|
-------------------------------|----------------------5--|
--7b-----7b-----7b-----7b---5--|----------------5h-6-----|
-------------------------------|--7----7~----------------|
-------------------------------|-------------------------|
-------------------------------|-------------------------|


                                                                               
--5-----------5----5----|--8b-------8b---8b---|--------------------------------|
-------6b---------------|---------------------|--10----10----8/-5--------------|
------------------------|---------------------|--------------------7--5h-7p-5--|
------------------------|---------------------|--------------------------------|
------------------------|---------------------|--------------------------------|
------------------------|---------------------|--------------------------------|


                                                                               
------------------------|--5-----------------------|--8-----------8------------|
---------------------5--|--5----8~-----------------|--8--------x--8----7----5--|
---------------5h-6-----|------------------x----9--|--9--------x--9----7----5--|
--7~--------------------|--------------------------|-----------x---------------|
------------------------|--------------------------|---------------------------|
------------------------|--------------------------|---------------------------|


                                                         
----------------------------|-------8------8------------|
----------------------------|-------8------8------------|
----------------------------|-------9------9----7----5--|
------7----5----------------|---------------------------|
--------------7--6--5--3----|--0------------------------|
----------------------------|---------------------------|


                                                           
---------------------------|------------------------------|
---------------------------|------------------------------|
------7r-----------5----7b-|------7b-----7b-----7b---7b---|
---------------------------|------------------------------|
---------------------------|------------------------------|
---------------------------|------------------------------|


                                                               
------------------------------|--------------------------------|
------------------------------|--------------------------------|
--7b---7b---7b---7b---5-------|--------------------------------|
---------------------------7--|------------5-------------------|
------------------------------|------5h-7-----7/-5--3--5----3--|
------------------------------|--------------------------------|


                                                                       
--------------------|--8----8----8------------|------------------------|
--------------------|--8----8----8----7----5--|------------------------|
--------------------|--9----9----9----7----5--|------------------------|
--7~-----------0----|-------------------------|------7------7----------|
--------------------|-------------------------|------------------------|
--------------------|-------------------------|------------------------|


                                                                             
--8----8----8------------|------------------------|--8----8----8------------|
--8----8----8----7----5--|------------------------|--8----8----8----7----5--|
--9----9----9----7----5--|------------------------|--9----9----9----7----5--|
-------------------------|------7------7----------|-------------------------|
-------------------------|------------------------|-------------------------|
-------------------------|------------------------|-------------------------|


                                                                           
------------------------|--8----8----8------------|------------------------|
------------------------|--8----8----8----7----5--|------------------------|
------------------------|--9----9----9----7----5--|------------------------|
------7------7----------|-------------------------|------7------7----------|
------------------------|-------------------------|------------------------|
------------------------|-------------------------|------------------------|


                                                                             
--8----8----8------------|------------------------|--8----8----8------------|
--8----8----8----7----5--|------------------------|--8----8----8----7----5--|
--9----9----9----7----5--|------------------------|--9----9----9----7----5--|
-------------------------|------7------7----------|-------------------------|
-------------------------|------------------------|-------------------------|
-------------------------|------------------------|-------------------------|


                                                                           
------------------------|--8----8----8------------|------------------------|
------------------------|--8----8----8----7----5--|------------------------|
------------------------|--9----9----9----7----5--|------------------------|
------7------7----------|-------------------------|------7------7----------|
------------------------|-------------------------|------------------------|
------------------------|-------------------------|------------------------|


               
------|------||
------|------||
------|------||
------|------||
------|------||
------|------||



qui è la solista


SoundOfDreams
 
Messaggi: 12638
Località: Villa Literno (Caserta)

Re: La grange-zz top

Messaggiodi Guit'EmAll

max ha scritto:ciao raga....vorrei avere tutto ke si può trovare su questa song x favore mi serve urgentemente....... :x


bellissima


Guit'EmAll
 
Messaggi: 10366
Località: VI PIACEREBBE SAPERLO, EH??? :D

Messaggiodi max

grazie ragazzi....è troppo bella....la suonano sempre nei g3 live..."john petrucci-Joe satriani-Steve vei"....


max
 
Messaggi: 25

Re: La grange-zz top

Messaggiodi Guit'EmAll




Guit'EmAll
 
Messaggi: 10366
Località: VI PIACEREBBE SAPERLO, EH??? :D



Torna a Accordi TAB Riff testo chords - Studiare canzoni


Chi c’è in linea

Visitano il forum: Nessuno e 3 ospiti