Accordi tab ritmo riff solo Voodoo Child - JIMI HENDRIX

Hai trovato gli accordi chords di una canzone ad orecchio e vorresti suggerirla? Oppure vuoi proporre la TAB per chitarra del tuo Riff preferito? il testo? Questo è il forum giusto! Anche per suggerimenti sul ritmo di una canzone. Ricordati di usare la funzione cerca...

Accordi tab ritmo riff solo Voodoo Child - JIMI HENDRIX

Messaggiodi cicciobastardo3



cio ragazzi qualcuno potrebbe postare una tab "facile" di Voodoo Child? ne ho trovato un sacco di versione ma essendo ancora all'inizio sono tutte troppo difficili..


cicciobastardo3
 
Messaggi: 215


Re: Voodoo Child

Messaggiodi wladdo75

cicciobastardo3 ha scritto:cio ragazzi qualcuno potrebbe postare una tab "facile" di Voodoo Child? ne ho trovato un sacco di versione ma essendo ancora all'inizio sono tutte troppo difficili..


Come canzone non si puo certo paragonare alla
CANZONE DEL SOLE.....di Battisti :roll:

Non so se esistano tab facili...provo a cercare ma dubito............. :oops: :oops:


Consiglio chitarra elettrica + Amplificatore

Ho suonato 2 anni al conservatorio... ma non mi hanno mai aperto!!
wladdo75
 
Messaggi: 5830
Località: TORINO

Messaggiodi cicciobastardo3

grazie :)


cicciobastardo3
 
Messaggi: 215

Messaggiodi SoundOfDreams

Insieme al nome della canzone nel titolo va inserito anhce l'artista.Corretto io stavolta =)


SoundOfDreams
 
Messaggi: 12638
Località: Villa Literno (Caserta)

Messaggiodi cicciobastardo3

scusami non lo sapevo :(


cicciobastardo3
 
Messaggi: 215

Messaggiodi slowhand

Hai scelto una canzoncina facile facile... :-)


slowhand
 
Messaggi: 50
Località: prov PG

Messaggiodi il conte

ragazzi è il primo tab che faccio...abbiate pietà di me..

e-------------------------------------x-x-x-x-----
B-------------------------------------x-x-x-x-----
G--\9-7---7--------------\9-7---9~~~-x-x-x-x----- X 2
D-------9---------7-----------9------x-x-x-x-----
A-----------10-10---10-7-------------x-x-x-x-----
E-------------------------------------x-x-x-x-----

e---------------------------------------------------
B-------------------------------10(12)10-8-10~~~----
G--\9-7---7--------------\9-7-----------------------
D-------9---------7-----------9---------------------
A-----------10-10---10-7----------------------------
E---------------------------------------------------
E A E sono opinabili gli ultimi due accordi...
e-0-0-0-----0-0-------0---0---0-0
B-0-0-0-----2-0-------0---0---0-0
G-0-0-1-----2-1-------4---2---3-5
D-0-0-2-----2-2-------0---0---2-4
A-0-0-2-----0-2-------5---4---3-5
E-0-0-0-3(4)-0-0-------0---0---0-0

e----------3--------------------------------
B------3-5---5---3-5-3---5-3---3------------
G-\4-4---------4-------4-----4---4-2--------
D-------------------------------------------
A--------------------------------------------
E-------------------------------------------
in alternativa:
e------------------------------------------
B----------8-------------------------------
G------7-9---9---7-9~~--7---9-7---7--------
D-\7-9---------9----------9-----9---9-7----
A---------------------------------------10-
E------------------------------------------

e----------5(6)-5-3-5-3----------------------------
B------3-5-------------3---5-3---3------------
G-\4-4---------4---------4-----4---4-2--------
D-------------------------------------------
A--------------------------------------------
E------------------------------------------

E A E
e-0-0-0-0-0-------
B-0-0-0-2-0-------
G-0-0-1-2-1-------
D-0-0-2-2-2-------
A-0-0-2-0-2-------
E-0-0-0-0-0-------


il conte
 
Messaggi: 28
Località: isole cayman

Messaggiodi wladdo75

Ciao Conte...non ti preoccupare va bene, te l'ho
solo rimpicciolita un po cosi per chi la volesse provare
non ci sono troppi problemi di SCORRIMENTO della pagina con il
mouse.....bravo!!!

e Benvenuto :shock:


Consiglio chitarra elettrica + Amplificatore

Ho suonato 2 anni al conservatorio... ma non mi hanno mai aperto!!
wladdo75
 
Messaggi: 5830
Località: TORINO

Messaggiodi il conte

c'erano degli errori nel post precedente..
ragazzi è il primo tab che faccio...abbiate pietà di me..

e-------------------------------------------x-x-x-x-----
B-------------------------------------------x-x-x-x-----
G--\9-7---7----------------\9-7---9~~~-x-x-x-x----- X 2
D--------9----------7------------9---------x-x-x-x-----
A------------10-10---10-7-----------------x-x-x-x-----
E--------------------------------------------x-x-x-x-----

e---------------------------------------------------
B------------------------------------10(12)10-8-10~~~----
G--\9-7---7----------------\9-7-----------------------
D-------9-----------7-------------9---------------------
A------------10-10---10-7----------------------------
E---------------------------------------------------
E A E sono opinabili gli ultimi due accordi...
e-0-0-0-------0-0-------0---0---0-0
B-0-0-0-------2-0-------0---0---0-0
G-0-0-1-------2-1-------4---2---3-5
D-0-0-2-------2-2-------0---0---2-4
A-0-0-2-------0-2-------5---4---3-5
E-0-0-0-3(4)-0-0-------0---0---0-0

e----------3--------------------------------
B------3-5---5---3-5-3---5-3---3------------
G-\4-4---------4-------4------4---4-2--------
D-------------------------------------------
A--------------------------------------------
E-------------------------------------------
in alternativa:
e------------------------------------------
B----------8-------------------------------
G------7-9---9---7-9~~--7---9-7---7--------
D-\7-9---------9----------9-----9---9-7----
A---------------------------------------10-
E------------------------------------------

e----------5(6)-5-3-5-3----------------------------
B------3-5---------------3---5-3---3------------
G-\4-4---------------------4-----4---4-2--------
D-------------------------------------------
A--------------------------------------------
E------------------------------------------

E A E
e-0-0-0-0-0-------
B-0-0-0-2-0-------
G-0-0-1-2-1-------
D-0-0-2-2-2-------
A-0-0-2-0-2-------
E-0-0-0-0-0-------


il conte
 
Messaggi: 28
Località: isole cayman

Messaggiodi jirachi94

in questi casi la funzione MODIFICA sarebbe stata più opportuna


di quelli che han vissuto con la coscienza pura / l'inferno esiste solo per chi ne ha paura

Scrivere Tab Chitarra On-line
jirachi94
 
Messaggi: 988
Località: tencarola di selvazzano - Padova

Accordi tab ritmo riff solo Voodoo Child - JIMI HENDRIX

Messaggiodi jirachi94

il mio video


di quelli che han vissuto con la coscienza pura / l'inferno esiste solo per chi ne ha paura

Scrivere Tab Chitarra On-line
jirachi94
 
Messaggi: 988
Località: tencarola di selvazzano - Padova

Messaggiodi darkside

WAH WAH CRY BABY

in tuuuuutta la canzone!

io uso il fuzz per il pezzo dopo. Posto la tab che seguo io :)

Codice: Seleziona tutto

Song: Voodoo Child (Slight Return)
Artist: Jimi Hendrix
Tabbed By: Travis P (diverdown)
Current E-mail: diverdown@verizon.net

KEY:
^ = hammer-on/pull-off
b = bend to indicated pitch/fret
rb= release bend
x = muffled note
W = wah on
WX = wah off
~~ = vibrato
/ = slide up to
\ = slide down to
( )= don't emphasize note
tr = trill
pm = palm mute


-Intro-
The intro is just Jimi playing muffled strings, near the 9th fret,
through a wah, lowering and raising the wah.  After that (with wah):

|----riff 1--------------|
  ~~                      ~~             
--------------------------------------------------
------------------------------------------x-x-----
-9--7---7-----------------9--7---7b8^9^7--x-x-----
------9----5b6-5-7^5-----------9----------x-x-----
---------------------(7)------------------x-x-----
--------------------------------------------------

riff 1 x 1



  ~~        hold bend              WX       
------------------------------------------------------------
-----------10b12-10b12-12rb10-8-----------------------------
-9--7---7-----------------------9\----------2b4rb2^0-(1)----
------9-----------------------------------------------2-----
------------------------------------------------------------
---------------------------------------0--0-----------------


|--riff 2--| |---riff 3----|
                                     hold bend           ~~   
------------------------------------------------------------
------------------------------------------------------------
---------(1)------2b4rb2^0----------12b14-12b14-14rb12-12---
----------2----2-----------2--------------------------------
---------------2----------(2)-------------------------------
--0-0-3b4------0--------------0-0-0-------------------------

                     W                  WX
                   *flick p-up selector switch
                         back and forth *     
------------------------------------------------------------------
------------------------------------------------------------------
-------2b4rb2^0------2b4-------------------2b4rb4^0---------------
----------------2-----------------------------------2----------2--
-12\-----------(2)---------------------------------(2)--------(2)-
-----0----------------------------------------------0--0-0-3b4----

-1st solo-
-------12-------12------------------------------------------------
-15b17----15b17------15^12-------------------12-15b17-------------
-------------------14-----14b16rb14^12--12^14--------14^12--------
--------------------------------------14------------------14^12---
------------------------------------------------------------------
------------------------------------------------------------------

----------------------------
----------------------------
-14b16-12-14b16rb14-12------
----------------------------
----------------------------
------------------------17\-

riff 2 x 1

riff 3 x 1

riff 2 x 1


------3-3-------------------3-3-------------
------3-3-------------------3-3-------------
--------------------------------2b4rb2^0----
--------------2---------2-------------------
--------------------------------------------
-0-0------3b4---0-0-3^0---0-----------------

riff 2 x 1


-Verse-
                                 
------------------------------------------------
--------------------------------3-0-3-----------
---------0----------------------------2b4rb2^0--
-----0-2---2---0-2^0-------2--2-----------------
-0-2---------2-------------2--------------------
---------------------0-3b4-0--------------------

riff 2 x 1


-Fill-
     ~~~~~                 
--0-(0)----------
--0-15b17--------
--0--------------
--0--------------
-----------------
-----------------

riff 2 x 1

riff 3 x 1

riff 2 x 1


-Verse-

-0-5b7--5^3^0--5^3-5^3^5--5-3b4--------------------------------------
--------------------------------5----0-3^0-0-3b5-3^0-3^0-------------
---------------------------------------------------------2b4rb2^0----
---------------------------------------------------------------------
---------------------------------------------------------------------
------------------------------------------------------------------0--

riff 2 x 1


--------------------
--------------------
--1/4-4-------------
--2/x-x--------2----
--2/5-5-------(2)---
--------0-3^0-------

-Pre Chorus-
------------------------------------
------------------------------------
--4-4-4-4-4-4-4-4--2-2-2-2-2-2-2-2--
--0-0-0-0-0-0-0-0--0-0-0-0-0-0-0-0--
--5-5-5-5-5-5-5-5--4-4-4-4-4-4-4-4--
------------------------------------

riff 2 x 1

riff 3 x 1

-Pre Chorus fill-
-------------------
--3-3-3-3-3-3-3-3--
--1-1-1-1-1-1-1-1--
--2-2-2-2-2-2-2-2--
-------------------
-------------------

-Chorus-
----------------------------------------
----------------------------------------
--3-3-3-3-3-3-3-3-3--5-5-5-5-5-5-5-5-5--
--2-2-2-2-2-2-2-2-2--4-4-4-4-4-4-4-4-4--
--3-3-3-3-3-3-3-3-3--5-5-5-5-5-5-5-5-5--
----------------------------------------

-----0--0----
-----0--0----
-----0--0----
-----7--5----
-------------
-0-0--------

riff 2 x 1


-2nd Solo-

W                             ~~~~     
-------------------------------------------------------------
-15b17-15b17rb15^12-15b17-15b17----15b17rb15^12-----12^15^12-
-----------------------------------------------14b16---------
-------------------------------------------------------------
-------------------------------------------------------------
-------------------------------------------------------------

--------------------------------------------------------------
--------------------------------------------------------------
-14^12--12^14b15---14b16rb14-12-------------------------------
------14------------------------------12-14-14----------------
---------------------------------12^14--------14\12-10--12-14-
--------------------------------0----------------------0------

--------------12-15b17-12^14^12--12-----12--------------------
------12-15b17-----------------15--15b17--15^12--15^12-15^12--
-----------------------------------------------14-------------
-14-14--------------------------------------------------------
--------------------------------------------------------------
--------------------------------------------------------------

-----------------------------12-----------------------
-14-12^15^12-14^12--12-15b17---15^12------------------
------------------14----------------14b16br14^12------
------------------------------------------------14----
------------------------------------------------------
------------------------------------------------------

-------------------------------------------------------------
-------------------------------------------------------------
-----2b4rb2^0-2b4-------------2b4rb2^0-----------12----------
--------------------------0^2---------------12^14--14^12-----
--------------------------------------2----------------------
-0-0--------------0-0-3b4----------------/15------------0-0--

---------------------------------------------------------------
------12-15-12-----12^15^12-----12^15^12-----12^15^12-12-12-12-
-14b16--------14b16--------14b16--------14b16------------------
---------------------------------------------------------------
---------------------------------------------------------------
---------------------------------------------------------------

                           W (approx.)                               
----------------------------------------------------------------
-15^12--------12-12-12-15-12-----12-12-15-----12^15^12-12^15^12-
------14-14b16--------------14b16--------14b16------------------
----------------------------------------------------------------
----------------------------------------------------------------
----------------------------------------------------------------



-------------------------------------------------------------------
-15^12--------12-12-12-12-15^12-----12-12-15-----12^15^12-12^15^12-
------14-14b16-----------------14b16--------14b16------------------
-------------------------------------------------------------------
-------------------------------------------------------------------
-------------------------------------------------------------------

                                       |---hold bend---------------|
---------------------------------------------------------------------
---12-12^15^12-------------15-15----15-15----15----15----15----15----
-15-----------14b16rb14^12-14-14b16-14-14b16-14b16-14b16-14b16-14b16-
---------------------------------------------------------------------
---------------------------------------------------------------------
---------------------------------------------------------------------

           WX
------15b17---       
--------------
-14-12--------
--------------
--------------
--------------

riff 2 x 1

--------------0--
-----------------
-----2b4rb2^0----
-----------------
-----------------
-0-0-------------

riff 2 x 1

riff 3 x 1

riff 2 x 1

                       |----------riff 4-------|
-Break-                         |-pm-|
---------------------------------------------------------
-x-x-x-x-------------------------------------------------
-x-x-x-x---------------2b4rb2^0--------------------------
-x-x-x-x-------0tr2------------2--2--2-----0tr2----------
-x-x-x-x-------------------------------------------------
----------3b4-----0-0-----------0--0--3b4----------------

riff 4 x 2

|--2x-----|
----------------------
----------------------
-2/12-12\2-----12-----
-2/12-12\2-----12^14--
-2/12-12\2------------
-2/12-12\2------------

riff 2/3 x 8 (verse)

Pre Chorus

riff 3 x 1

riff 2 x 1

Pre Chorus fill

Chorus

riff 2 x 2


-3rd solo-
--------------------------12----------------------------------------
-15b17rb15^12-15b17-15b17---15-12--15-12----------------------------
---------------------------------12-----14b16-14^12--12-14b16-14b16-
---------------------------------------------------14---------------
--------------------------------------------------------------------
--------------------------------------------------------------------

-----------------12-----12-15-12-15b17-15-12-14^12-----12-----------
------14^12-15b17--15b17--------------------------15b17--15^12------
-12---14^12---------------------------------------------------------
---14---------------------------------------------------------------
--------------------------------------------------------------------
--------------------------------------------------------------------

                                   ~~~~~
------------------------------------------------------------------------
-15^12-------------------12-15-12-15b17-12-12-12-12---------------------
-14---14b16rb14^12--12^14---------------------------14b16rb14^12--12^14-
------------------14--------------------------------------------14------
------------------------------------------------------------------------
------------------------------------------------------------------------

                                      ~~~~
---12---------------------------------------------------------------
-15--15-12-----15--------------------15b17---12---------------------
----------14b16--14b16rb14^12--12^14-------14--14^12-14-12----------
-----------------------------14---------------------------14-12-----
----------------------------------------------------------------12\-
--------------------------------------------------------------------

                                      |----riff 5----|
                                       W(approx.)
--------------------------------3-3-3--3-3--3-3-3-3-3--
--------------------------------3-3-3--3-3--3-3-3-3-3--
-2b4rb2^0----------------------------------------------
--------------2---2-2-----2----------------------------
-------------(2)--2-2----(2)---------------------------
----------3b4-----0-0-3b4------------------------------

riff 5 x 2 (WX - after)

riff 3 x 1

riff 2 x 1

riff 5 x 1


|-----------------tremelo picking-----------------| 
                                                   
-16-16-16-16-16-16-16-16-16-16-16-16-16-16-16-16-16--
-15-15-15-15-15-15-15-15-15-15-15-15-15-15-15-15-15--   repeat...
-16-16-16-16-16-16-16-16-16-16-16-16-16-16-16-16-16--
-----------------------------------------------------
-----------------------------------------------------
-----------------------------------------------------

riff 3 x 1

riff 2 x 1

riff 3 x 1

riff 2 x 1

                                grad.bend
                                   
------12b14-12--12-----------------------------------------
-12-15--------15--12-15--12------------15------------------
-----------------------14--12^14-14b16---rb14-12-14-12-----
------------------------------------------------------12\--
-----------------------------------------------------------
-----------------------------------------------------------

riff 3 x 1

riff 2 x 1

riff 5 x 1 (W)


------------
------------
-2b4rb2^0---
---------2--
------------
------------

riff 5 x 2


|----riff 6--|
-------0-----0---------
-------0-----0---------
-14b16--14b16----------
-----------------------
-----------------------
-----------------------

riff 6 x 5

     ~~~~~~~~~
--19b21--------------
---------------------
---------------------
---------------------
---------------------
---------------------

riff 2 x 1

riff 3 x 1

riff 2 x 1

riff 3 x 1

riff 2 x 1

riff 3 x 1


    *flick p-up selector switch   
       back and forth*           WX
------------------------------------
------------------------------------
--2b4------------------2b4rb2^0-----
------------------------------------
------------------------------------
------------------------------------

riff 2 x 1

W    dive = 2
---------------0------
-0tr3----------0------
---------------0------
---------------0------
----------------------
----------------------

riff 3 x 1 (WX - after) riff 3 x 1



darkside
 
Messaggi: 128
Località: Rocktown

Accordi tab ritmo riff solo Voodoo Child - JIMI HENDRIX

Messaggiodi jirachi94

come suonare la intro?


di quelli che han vissuto con la coscienza pura / l'inferno esiste solo per chi ne ha paura

Scrivere Tab Chitarra On-line
jirachi94
 
Messaggi: 988
Località: tencarola di selvazzano - Padova

Accordi tab ritmo riff solo Voodoo Child - JIMI HENDRIX

Messaggiodi Dufresne

in effetti non è per niente semplice, ma questa versione acustica è veramente bella :-OO



Dufresne
 
Messaggi: 6160

Re: Accordi tab ritmo riff solo Voodoo Child - JIMI HENDRIX

Messaggiodi Susan

E vero duf questa versione acustica e veramente strabiliante :SSS


Susan
 
Messaggi: 171



Torna a Accordi TAB Riff testo chords - Studiare canzoni


Chi c’è in linea

Visitano il forum: Nessuno e 9 ospiti