[Propongo] Cartoni Animati - Daitarn III

Hai trovato gli accordi chords di una canzone ad orecchio e vorresti suggerirla? Oppure vuoi proporre la TAB per chitarra del tuo Riff preferito? il testo? Questo è il forum giusto! Anche per suggerimenti sul ritmo di una canzone. Ricordati di usare la funzione cerca...

[Propongo] Cartoni Animati - Daitarn III

Messaggiodi Rustuzzz

Codice: Seleziona tutto
DAITARN 3
tonalità Lam (originariamente DO#m)

DAITARN DAITARN DAITARN (x2)
[lam]                    [Sol]
Uno per tre e tre per uno perche'
Insieme noi usciamo sempre dai guai
[do]
E difendiam la terra
[mi]
Dall'ombra della guerra
[lam]                 [fa]             [Sol]
Il nostro cuore battera' per la liberta'
Gli intrighi e i loschi piani
Dei mostri disumani
Il nostro raggio spaziera' nell'immensita'
rit:       [lam]
           DAITARN DAITARN
           [rem]
     Arriva il gran nemico, scatta
                                 [Sol]
     Ma tu ci sei amico, DAITARN
                         [do]          [mi]
          Evviva DAITARN III
     DAIRARN DAITARN
     Per noi tu sei davvero forte
     Per noi tu sei davvero grande
     Evviva DAITARN III
Noi siamo un trio all'erta e pieni di brio
Seguiam la scia se un meganoide ci spia
E Mach Patrol ci porta
Nell'occhio all'avventura
Verso l'ignoto corre e va come un fulmine
E in aria si trasforma
In un robot che ha un'arma
Ha l'energia solare che
E' invincibile
rit.
    (DAITARN, arriva-il-nemico, prepararsi, robot-ad-energia-solare-DAITARN)
rit.(x4, a calare)


Oh, c'ho la sindrome di peter pan :lol:

Videoclip : http://youtube.com/watch?v=P-VTXsZPu8g :x


i don´t like the disco
and i don´t like the house
cos´ i was born to rock
i´m born to pogo!
i'm the KING OF THE POGO!!!
Rustuzzz
 
Messaggi: 186
Località: Messina


Messaggiodi noice

:x :x
e poi:
Codice: Seleziona tutto
capo IV


                                  INTRO:  X2 volte

|       |       |       |        |       |       |       |       
|--------------------------------|0---0---0---------------0-------|
|--------------------------------|1---1---1---3---3---3---1-------|
|--------------------------------|2-----------0---0---0---2-------|
|--------------------------------|2-----------0-----------2-------|
|--------------------------------|0-----------2-----------0-------|
|--------------------------------|------------3-------------------|

|       |       |       |        |       |       |       |       
|0-------------------------------|--------------------------------|
|1-------------------------------|--------------------------------|
|2-------------------------------|--------------------------------|
|2-------------------------------|--------------------------------|
|0-------0-------0-------0-------|0-------0-------0---------------|
|--------------------------------|--------------------0---3---0---|




STROFA:  Uno per tre e tre per ...                X2 volte
          Insieme noi usciamo...

|       |       |       |        |       |       |       |       
|--------------------------------|--------------------------------|
|--------1---------------1-------|--------1---------------1-------|
|--------2---------------2-------|--------2---------------2-------|
|--------2---------------2-------|--------2---------------2-------|
|0-------0-----------0-------0---|--------0---------------0-------|
|------------0---3---------------|--------0-------3---------------|

   ...uno perchè...
   ...sempre dai guai...

|       |       |       |        |       |       |       |       
|--------------------------------|--------------------------------|
|--------3---------------3-------|--------3-----------------------|
|--------2---------------2-------|--------2---------------2-------|
|0-------3-----------0---3---0---|--------3---------------3-------|
|------------0---3---------------|------------0---3---------------|
|--------------------------------|--------------------------------|







PREcHORUS:   E difendiam la terra...              X2 volte
              Intrighi e loschi piani...

|       |       |       |        |       |       |       |       
|--------------------------------|--------------------------------|
|1-------------------------------|--------------------------------|
|0-------------------------------|0-------------------------------|
|2-------------------------------|2-------------------------------|
|3---3---3---3---3---3---3---3---|3---3---3---3---3---3---3---3---|
|3-------------------------------|3-------------------------------|

              dall' ombra della guerra...
              dei mostri disumani..-

|       |       |       |        |       |       |       |       
|0-------------------------------|--------------------------------|
|0-------------------------------|--------------------------------|
|1-------------------------------|1-------------------------------|
|2-------------------------------|2-------------------------------|
|2-------------------------------|2-------------------------------|
|----0---0---0---0---0---0---0---|----0---0---0---0---0---0---0---|

              il nostro cuore batterà...
              il nostro raggio spazzerà...

|       |       |       |        |       |       |       |       
|0-------------------------------|--------------------------------|
|1-------------------------------|1-------------------------------|
|2-------------------------------|2-------------------------------|
|2-------------------------------|2-------------------------------|
|0---0---0---0---0---0---0---0---|0---0---0---0---0---0---0---0---|
|--------------------------------|--------------------------------|

                               per la libertà
                               nell' immensità.

|       |       |       |        |       |       |       |       
|--------------------------------|--------------------------------|
|1-------------------------------|3-------------------------------|
|2-------------------------------|4-------------------------------|
|3-------------------------------|5-------------------------------|
|3-------------------------------|5-------------------------------|
|1---1---1---1---1---1---1---1---|3---3---3---3---3---3---3---3---|







CHORUS:Daitarn,  daitarn                         arriva già il ne-
       Daitarn,  daitarn                       per noi tu sei dav-


|       |       |       |        |       |       |       |       
|----0-----0-----0-----0-----0---|----0-----0-----0-----0-----0---|
|----1-----1-----1-----1-----1---|----1-----1-----1-----1-----1---|
|----2-----2-----2-----2-----2---|----2-----2-----2-----2-----2---|
|----2---------------------------|----2---------------------------|
|----0---------------------------|----0---------------------------|
|--------------------------------|--------------------------------|

   mico,       scatta                              ma tu ci sei a-
   vero        forte                           per noi tu sei dav-

|       |       |       |        |       |       |       |       
|----1-----1-----1-----1-----1---|----1-----1-----1-----1-----1---|
|----3-----3-----3-----3-----3---|----3-----3-----3-----3-----3---|
|----2-----2-----2-----2-----2---|----2-----2-----2-----2-----2---|
|----0---------------------------|----0---------------------------|
|--------------------------------|--------------------------------|
|--------------------------------|--------------------------------|
   mico,        daitarn                  evviva        daitarn
   vero         grande                   evviva        daitarn     

|       |       |       |        |       |       |       |       
|--------------------------------|--------------------------------|
|----3-----3-----3-----3-----3---|----3-----3-----3-----3-----3---|
|----4-----4-----4-----4-----4---|----4-----4-----4-----4-----4---|
|----5-----5-----5-----5-----5---|----5-----5-----5-----5-----5---|
|----5---------------------------|----5---------------------------|
|--------------------------------|--------------------------------|

   tre...
   tre...                                           X2 Volte

|       |       |       |        |       |       |       |       
|--------------------------------|--------------------------------|
|----1-----1-----1-----1-----1---|----0-----0-----0-----0-----0---|
|----0-----0-----0-----0-----0---|----1-----1-----1-----1-----1---|
|----2-----2-----2-----2-----2---|----2-----2-----2-----2-----2---|
|----3---------------------------|----2---------------------------|
|--------------------------------|--------------------------------|






1 volta: Dopo queste 4 battute ricominciare dalla strofa

|       |       |       |        |       |       |       |       
|0-------------------------------|----------------0-------0-------|
|1-----------3-----------1-------|----3-----------1-------1-------|
|2-----------4-----------2-------|----4-----------2-------2-------|
|3-----------5-----------3-------|----5-----------3-------3-------|
|--------------------------------|--------------------------------|
|--------------------------------|--------------------------------|

|       |       |       |        |       |       |       |       
|--------------------------------|--------------------------------|
|--------------------------------|--------------------------------|
|--------------------------------|--------------------------------|
|--------------------------------|--------------------------------|
|0-------0-------0-------0-------|0-------0-------0---------------|
|--------------------------------|--------------------0---3---0---|







   CODA:
|       |       |       |        |       |       |       |       
|0-------------------------------|----------------0-------0-------|
|1-----------3-----------1-------|----3-----------1-------1-------|
|2-----------4-----------2-------|----4-----------2-------2-------|
|3-----------5-----------3-------|----5-----------3-------3-------|
|--------------------------------|--------------------------------|
|--------------------------------|--------------------------------|

|       |       |       |        |       |       |       |       
|------------------------0-------|5-------------------------------|
|------------------------0-------|5-------------------------------|
|------------------------0-------|5-------------------------------|
|--------------------------------|--------------------------------|
|--------------------------------|--------------------------------|
|--------------------------------|--------------------------------|

da http://www.daitarn3.it
Ultima modifica di noice su , modificato 1 volte in totale.


"i plettri sono fatti per essere persi, dimenticati, fregati agli amici, scambiati come fiches del casinò.. lavati con i jeans.." [cit. Mario]

Guida ai plettri per chitarra
noice
 
Messaggi: 1718
Località: Ischia

Messaggiodi Guit'EmAll

BELLISSIMA!!!!


Questo video però è più bello!


http://youtube.com/watch?v=mmrBx135CTc& ... ed&search= :!: :!: :!: :!: :!:


Guit'EmAll
 
Messaggi: 10366
Località: VI PIACEREBBE SAPERLO, EH??? :D



Torna a Accordi TAB Riff testo chords - Studiare canzoni


Chi c’è in linea

Visitano il forum: Nessuno e 3 ospiti