Accordi tab ritmo Fabrizio De Andrè Ballata Dell'amore Cieco

Hai trovato gli accordi chords di una canzone ad orecchio e vorresti suggerirla? Oppure vuoi proporre la TAB per chitarra del tuo Riff preferito? il testo? Questo è il forum giusto! Anche per suggerimenti sul ritmo di una canzone. Ricordati di usare la funzione cerca...

Accordi tab ritmo Fabrizio De Andrè Ballata Dell'amore Cieco

Messaggiodi darkside



Volevo sapere se possedete gli accordi o la tab di questa magnifica canzone di Fabrizio De Andrè.

Io ho trovato questo materiale:

Codice: Seleziona tutto

[Am]Un uomo [F]onesto, [G]un uomo [C]probo, tra-la-la-[G]lalla,
tra-lalla-[C]lero
[Am]S'innamo[F]ro' per[G]duta[C]mente ['(solo basso)]d'una che non lo
amava [Am]niente
[Am]Gli disse [F]"Porta[G]mi do[C]mani", tra-la-la-[G]lalla,
tra-lalla-[C]lero
[Am]Gli disse [F]"Porta[G]mi do[C]mani il cuore di tua [F]madre per i
[G]miei [Am]cani"
[Am]Lui dalla [F]madre [G]ando' e [C]l'uccise, tra-la-la-[G]lalla,
tra-lalla-[C]lero
[Am]Dal petto il [F]cuore [G]le strap[C]po' e dal suo amore
ritor[Am]no'

{comment:intermezzo: [F][G][C][F][G][Am](2v)}

Non era il cuore, non era il cuore, tra-la-la-lalla, tra-lalla-lero
Non le bastava quell'orrore voleva un'altra prova del suo cieco amore
Gli disse ancor "Se mi vuoi bene", tra-la-la-lalla, tra-lalla-lero
Gli disse ancor "Se mi vuoi bene tagliati dei polsi le quattro vene"
Le vene ai polsi lui si taglio', tra-la-la-lalla, tra-lalla-lero
E come il sangue ne sgorgo' correndo come un pazzo da lei torno'

Gli disse lei, ridendo forte, tra-la-la-lalla, tra-lalla-lero
Gli disse lei, ridendo forte : "L'ultima tua prova sara' la morte !"
E mentre il sangue lento usciva e ormai cambiava il suo colore
La vanita' fredda gioiva, un uomo s'era ucciso per il suo amore

Fuori soffiava dolce il vento, tra-la-la-lalla, tra-lalla-lero
Ma lei fu presa da sgomento quando lo vide morir contento
Morir contento e innamorato quando a lei nulla era restato
Non il suo amore, non il suo bene, ma solo il sangue secco delle sue
vene



E una tab ( Si può capire il classic ostile in bluegrass!

Codice: Seleziona tutto

     Am
E||------------------------|------------------------|-------------------
-----|
B||-------1--1-------1--1--|-------1--1-------1--1--|-------1--1-------1
--1--|
G||-------2--2-------2--2--|-------2--2-------2--2--|-------2--2-------2
--2--|
D||-------2--2-------2--2--|-------2--2-------2--2--|-------2--2-------2
--2--|
A||--0---------------------|--0---------------------|--0----------------
-----|
E||-------------3----------|-------------3----------|-------------3-----
-----|


                             Am         F             G7         C
------------------------||-------------------------|-------1--1-------0-
-0--|
-------1--1-------1--1--||--------1--1-------1--1--|-------0--0-------1-
-1--|
-------2--2-------2--2--||*-------2--2-------2--2--|-------0--0-------0-
-0--|
-------2--2-------2--2--||*-------2--2-------3--3--|--0----0--0--2----2-
-2--|
--0---------------------||---0----------3----------|--------------------
----|
-------------3----------||-------------------------|--------------------
----|


             G7                       C             Am         F
------------------1--1--|------------------0--0--|----------------------
--|
------------------0--0--|------------------1--1--|-------1--1-------1--1
--|
-------------0----0--0--|------------------0--0--|-------2--2-------2--2
--|
--2--2--2---------0--0--|--3--2--0----2----2--2--|-------2--2-------3--3
--|
------------------------|------------------------|--0----------3--------
--|
------------------------|------------------------|----------------------
--|


  G7         C
-------1--1-------0--0--|-------------|----------------------|
-------0--0-------1--1--|-------------|----------------------|
-------0--0-------0--0--|-------------|----------------------|
--0----0--0--2----2--2--|--2--2--0----|--2----0--------------|
------------------------|-------------|------------3----2----|
------------------------|-------------|----------------------|


                           G7         C                        G7
------------------------|-------1--1-------0--0--|------------------1--1
--|
-------1--1-------1--1--|-------0--0-------1--1--|------------------0--0
--|
-------2--2-------2--2--|-------0--0-------0--0--|-------------0----0--0
--|
-------2--2-------2--2--|--0----0--0--2----2--2--|--2--2--2---------0--0
--|
--0---------------------|------------------------|----------------------
--|
-------------0----------|------------------------|----------------------
--|


             C             Am         F             G7         C
------------------0--0--|------------------------|-------1--1-------0--0
--|
------------------1--1--|-------1--1-------1--1--|-------0--0-------1--1
--|
------------------0--0--|-------2--2-------2--2--|-------0--0-------0--0
--|
--3--2--0----2----2--2--|-------2--2-------3--3--|--0----0--0--2----2--2
--|
------------------------|--0----------3----------|----------------------
--|
------------------------|------------------------|----------------------
--|


                 Am                       Am
--------------|------------------------|-------------------------||
--------------|-------1--1-------------|-------1--1-------1--1---||
--------------|-------2--2-------------|-------2--2-------2--2--*||
--------------|-------2--2-------------|-------2--2-------2--2--*||
--0--0--0--0--|--0----------2----0-----|--0----------------------||
--------------|---------------------3--|-------------0-----------||


  Am                       Am                         Am
------------------------|------------------------||--------0--0---------
----|
-------1--1-------------|-------1--1-------------||--------1--1---------
----|
-------2--2-------------|-------2--2--2--2--2----||*--2----2--2---------
----|
-------2--2-------------|-------2--2-------------||*-------------3--2--0
----|
--0----------2----0-----|--0---------------------||---------------------
----|
---------------------3--|------------------------||---------------------
----|


  Am                       Am                       Am
-------0--0-------------|-------0--0-------------|-------0--0-----------
--|
-------1--1-------------|-------1--1-------------|-------1--1-----------
--|
-------2--2--2--2--2----|--2----2--2-------------|-------2--2--2--2--2--
--|
--2----2--2-------------|-------------3--2--0----|--2----2--2-----------
--|
------------------------|------------------------|----------------------
--|
------------------------|------------------------|----------------------
--|


  Am                       Am
-------0--0-------------|-------0--0-------------|-------0--0-----------
--|
-------1--1-------------|-------1--1-------------|-------1--1-----------
--|
--2----2--2-------------|-------2--2-------------|-------2--2-----------
--|
-------------3--2--0----|--2----2--2-------------|-------2--2-----------
--|
------------------------|-------------0--0--0----|--0----------3--2-----
--|
------------------------|------------------------|-------------------3--
--|


                                                     Am         F
-------0--0--------0--0--|------------------0--0--|---------------------
---|
-------1--1--------1--1--|------------------1--1--|-------1--1-------1--
1--|
-------2--2--1/-2--2--2--|------------------2--2--|-------2--2-------2--
2--|
-------2--2--1/-2--2--2--|--2p-0------------2--2--|-------2--2-------3--
3--|
--0----------0--0--------|--------3----0----------|--0----------3-------
---|
-------------------------|------------------------|---------------------
---|


  G7         C                        G7                       C
-------1--1-------0--0--|------------------1--1--|------------------0--0
--|
-------0--0-------1--1--|------------------0--0--|------------------1--1
--|
-------0--0-------0--0--|-------------0----0--0--|------------------0--0
--|
--0----0--0--2----2--2--|--2--2--2---------0--0--|--3--2--0----2----2--2
--|
------------------------|------------------------|----------------------
--|
------------------------|------------------------|----------------------
--|


  Am         F             G7         C
------------------------|-------1--1-------0--0--|--------------|
-------1--1-------1--1--|-------0--0-------1--1--|--------------|
-------2--2-------2--2--|-------0--0-------0--0--|--------------|
-------2--2-------3--3--|--0----0--0--2----2--2--|--------------|
--0----------3----------|------------------------|--0--0--0--0--|
------------------------|------------------------|--------------|


  Am                       Am                       Am         F
-------0--0-------------|------------------------|----------------------
--|
-------1--1-------------|-------1--1-------1--1--|-------1--1-------1--1
--|
-------2--2-------------|-------2--2-------2--2--|-------2--2-------2--2
--|
-------2--2-------------|-------2--2-------2--2--|-------2--2-------3--3
--|
--0----------2--0-------|--0---------------------|--0----------3--------
--|
-------------------3----|-------------3----------|----------------------
--|


  G7         C                        G7                       C
-------1--1-------0--0--|------------------1--1--|------------------0--0
--|
-------0--0-------1--1--|------------------0--0--|------------------1--1
--|
-------0--0-------0--0--|-------------0----0--0--|------------------0--0
--|
--0----0--0--2----2--2--|--2--2--2---------0--0--|--3--2--0----2----2--2
--|
------------------------|------------------------|----------------------
--|
------------------------|------------------------|----------------------
--|


  Am         F             G7         C
------------------------|-------1--1-------0--0--|--------------|
-------1--1-------1--1--|-------0--0-------1--1--|--------------|
-------2--2-------2--2--|-------0--0-------0--0--|--------------|
-------2--2-------3--3--|--0----0--0--2----2--2--|--------------|
--0----------3----------|------------------------|--0--0--0--0--|
------------------------|------------------------|--------------|


  Am                       Am                     3x
-------0--0-------------|-------------------------||
-------1--1-------------|-------1--1--------------||
-------2--2-------------|-------2--2--2----2--2--*||
-------2--2-------------|-------2--2-------------*||
--0----------2--0-------|--0----------------------||
-------------------3----|-------------------------||




darkside
 
Messaggi: 128
Località: Rocktown


Messaggiodi Federica81

Bellissima...la aggiungo al canzoniere! :wink:


Federica81
 
Messaggi: 2011

Messaggiodi Kraken



Kraken
 
Messaggi: 1031
Località: catania tra parco della vittoria e viale dei giardini

Messaggiodi mauz bitto

vabbè lì c'era solo un link ad una pagina, e poi lo sai che dividiamo un topic
per ogni canzone, quindi lì rimane il "Canto del servo pastore" qui l'altra :wink:


mauz bitto
 
Messaggi: 3531
Località: Bitonto (Ba)

Re:

Messaggiodi FabioBs

Federica81 ha scritto:Bellissima...la aggiungo al canzoniere! :wink:


Cioè, fatemi capire, nessuno ha problemi con il ritmo di questa canzone?

...............solo io??????? :-((


"La Nostra chitarra anche stasera morderà, e a chi sta per fare Rock, io rendo onore!"
FabioBs
 
Messaggi: 145
Località: Brescia

Re: Fabrizio De Andrè - Ballata Dell'amore Cieco

Messaggiodi snake94

per niente... fai così

prima accordo pizzica la 5° corda e subito dopo la 2°,3 e 4 insieme e cambi subito accordo... prova così


snake94
 
Messaggi: 93

Re: Fabrizio De Andrè - Ballata Dell'amore Cieco

Messaggiodi FabioBs

La versione di Baccini in che tonalità è?

(non sò perchè ma queste tablature mi mandano fuori tonalità a cantarla)


"La Nostra chitarra anche stasera morderà, e a chi sta per fare Rock, io rendo onore!"
FabioBs
 
Messaggi: 145
Località: Brescia




Torna a Accordi TAB Riff testo chords - Studiare canzoni


Chi c’è in linea

Visitano il forum: Nessuno e 17 ospiti

croncron