Il mio corpo che cambia - Litfiba

Hai trovato gli accordi chords di una canzone ad orecchio e vorresti suggerirla? Oppure vuoi proporre la TAB per chitarra del tuo Riff preferito? il testo? Questo è il forum giusto! Anche per suggerimenti sul ritmo di una canzone. Ricordati di usare la funzione cerca...

Il mio corpo che cambia - Litfiba

Messaggiodi AioroS

Stavo navigando un pò in rete e mi sono imbattuto in questo brano che sembra anche piuttosto semplice.. sono 4 accordi :
Codice: Seleziona tutto

Em     C       G         D
Cos'è cos'è questa sensazione
Em     C            G            D
è come un treno che passa dentro senza stazione
Em     C       G         D
Dov'è dov'è il capostazione
Em     C            G             D
sto viaggiando senza biglietto e non ho direzione

Am-C-G-D

Em     C       G         D
è lei è lei che prende la mia mano
Em     C                    G         D
e mi accompagna in questo lungo viaggio andiamo lontano
Em     C       G         D
ecco cos'è tutto il mio stupore
Em     C                       G         D
non è facile guardare in faccia la trasformazione

G                         D
E' il mio corpo che cambia
                  Em     C       G         D
nella forma e nel colore è in trasformazione
G                         D
E' una strana sensazione in un bagno di sudore
Em     C       G         D
E' il mio corpo che cambia
Em     C       G         D
che cambia e cambia

Em     C       G         D
Cos'è cos'è questa sensazione
Em     C                       G         D
è come un treno che mi passa dentro senza stazione
Em     C       G         D
dimmi qual è qual è la mia direzione
Em     C                     G         D
sto viaggiando senza biglietto nè limitazioni

Am-C-G-D

G                         D
E' il mio corpo che cambia
                  Em     C       G         D
nella forma e nel colore è in trasformazione
G                         D
E' una strana sensazione in un bagno di sudore
Em     C       G         D
E' il mio corpo che cambia
Em     C       G         D
che cambia che cambia
Em     C       G         D
che cambia e cambia



solo che non sono capace di capire il ritmo e le pennate da fare ( S G e cosi via ).. se qualcuno potesse darmi una mano.. potrebbe anche essere una buona proposta per entrare a far parte delle canzoni da spiaggia..


AioroS
 
Messaggi: 42
Località: Cosenza


Messaggiodi n.scaccia

Oltre ad essere bella, è davvero utile per esercitarsi nel cambio di accordi, come Il Pescatore di De Andrè. :!:


n.scaccia
 
Messaggi: 62

Messaggiodi storm

mmmm...fai più pennata G di fila per un buon ritmo


Meglio essere feriti da una verità che essere consolati da una menzogna....
storm
 
Messaggi: 420
Località: Sicily

Messaggiodi Eli74

Il ritmo è un pò difficile da spiegare comunque sono molte pennate veloci per accordo. Prova con GGGS. Non dimenticarti però di fare sentire con una piccola pennata in su le prime due corde nel momento in cui cambi accordo (dal mi cantino in su per capirci)


Eli74
 
Messaggi: 176

Messaggiodi storm

http://www.youtube.com/watch?v=Ekl-vUWc9Aw


a chi interessa il video eccolo.....lasciate stare la mia voce =)


Meglio essere feriti da una verità che essere consolati da una menzogna....
storm
 
Messaggi: 420
Località: Sicily

Messaggiodi Guit'EmAll

storm ha scritto:http://www.youtube.com/watch?v=Ekl-vUWc9Aw


a chi interessa il video eccolo.....lasciate stare la mia voce =)



AH! AH! AH!!! SPETTACOLO!!! MA LO SAI CHE TI E' VENUTA BENE???

C'E' PURE IL FISCHIETTO INCORPORATO COME NEL VIDEO ORIGINALE!!!!!

L'UNICO "DIFETTO" E' CHE AD UN CERTO PUNTO TI SEI ALLONTANATO DAL MICROFONO FACENDO SEMBRARE LA VOCE IN LONTANANZA, COMUNQUE BRAVO, COMPLIMENTI..... :wink:


Guit'EmAll
 
Messaggi: 10366
Località: VI PIACEREBBE SAPERLO, EH??? :D

Messaggiodi storm

Guit'EmAll ha scritto:
storm ha scritto:http://www.youtube.com/watch?v=Ekl-vUWc9Aw


a chi interessa il video eccolo.....lasciate stare la mia voce =)



AH! AH! AH!!! SPETTACOLO!!! MA LO SAI CHE TI E' VENUTA BENE???

C'E' PURE IL FISCHIETTO INCORPORATO COME NEL VIDEO ORIGINALE!!!!!

L'UNICO "DIFETTO" E' CHE AD UN CERTO PUNTO TI SEI ALLONTANATO DAL MICROFONO FACENDO SEMBRARE LA VOCE IN LONTANANZA, COMUNQUE BRAVO, COMPLIMENTI..... :wink:


non mi sono allontanato...ho soltanto abbassato il tono,cosa che mi succede spesso perchè non riesco a reggere....grazie comunque.... :wink:


Meglio essere feriti da una verità che essere consolati da una menzogna....
storm
 
Messaggi: 420
Località: Sicily

Messaggiodi Dufresne

storm ha scritto:http://www.youtube.com/watch?v=Ekl-vUWc9Aw


a chi interessa il video eccolo.....lasciate stare la mia voce =)


mica male sai...l'intonazione c'è tutta e la chitarra va benone...

PS: è il pezzo che è diffcile...anch'io gli acuti non li reggo molto, cioè non arrivo molto in alto...grande cmq :wink:


Dufresne
 
Messaggi: 6166

Messaggiodi storm

Dufresne ha scritto:
storm ha scritto:http://www.youtube.com/watch?v=Ekl-vUWc9Aw


a chi interessa il video eccolo.....lasciate stare la mia voce =)


mica male sai...l'intonazione c'è tutta e la chitarra va benone...

PS: è il pezzo che è diffcile...anch'io gli acuti non li reggo molto, cioè non arrivo molto in alto...grande cmq :wink:

thanks....quando ci saranno richieste di questo genere....se ci riesco faccio i video.... :wink:


Meglio essere feriti da una verità che essere consolati da una menzogna....
storm
 
Messaggi: 420
Località: Sicily

Messaggiodi AioroS

Ehi, non mi ero accorto che qualcuno avesse risposto, ci avevo quasi perso le speranze! grazie per i suggerimenti ed il video in particolare, è una cosa che trovo parecchio utile!!


AioroS
 
Messaggi: 42
Località: Cosenza

Messaggiodi Uriana

MmMmM...grande, Storm. My kind of guy. =D


Cosa c'è, in fondo, di male a vivere?
Avatar utente
Uriana
 
Messaggi: 26

Messaggiodi storm

Uriana ha scritto:MmMmM...grande, Storm. My kind of guy. =D

ah ahah....grazie....=P


Meglio essere feriti da una verità che essere consolati da una menzogna....
storm
 
Messaggi: 420
Località: Sicily

Re: Il mio corpo che cambia - Litfiba

Messaggiodi 7VanderWalter

Ciao a tutti! Dopo lunga ricerca ho trovato finalmente la tab del basso.. La posto se dovesse servire a qualcuno.. Fatemi sapere se è utile! Ciao

IL MIO CORPO CHE CAMBIA - BASSO ELETTRICO

Codice: Seleziona tutto
Intro A (cembalo):    NO BASSO

Intro B (fischio)
G|---------------------------------|---------------------------|
D|--------------------------0------|---------0--0----0-2-------|
A|--0---0----0-2-3--3----2-3-------|-------0-------------------|
E|----------3-----------------3--3-|--3-2-3--------------------|

G|---------------------------------|---------------------------|
D|--------------------------0------|---------0--0----0-2-------|
A|--0---0----0-2-3--3----2-3-------|-------0-------------------|
E|----------3-----------------3--3-|--3-2-3--------------------|


Strofa
G|-------------------|------------------|-------------------|------------------|
D|--2--2-------------|--------0-0-0-2-0-|--2--2-------------|--------0-0-0-2-0-|
A|---------3-3-2-0---|------------------|---------3-3-2-0---|------------------|
E|-----------------3-|-3--3-------------|-----------------3-|-3--3-------------|

G|-------------------|------------------|-------------------|------------------|
D|--2--2-------------|--------0-0-0-2-0-|--2--2-------------|--------0-0-0-2-0-|
A|---------3-3-2-0---|------------------|---------3-3-2-0---|------------------|
E|-----------------3-|-3--3-------------|-----------------3-|-3--3-------------|


Intermezzo (fischio)
G|---------------------------------|---------------------------|
D|--------------------------0------|---------0--0----0-2-------|
A|--0---0----0-2-3--3----2-3-------|-------0-------------------|
E|----------3-----------------3--3-|--3-2-3--------------------|


Strofa
G|-------------------|------------------|-------------------|------------------|
D|--2--2-------------|--------0-0-0-2-0-|--2--2-------------|--------0-0-0-2-0-|
A|---------3-3-2-0---|------------------|---------3-3-2-0---|------------------|
E|-----------------3-|-3--3-------------|-----------------3-|-3--3-------------|

G|-------------------|------------------|-------------------|------------------|
D|--2--2-------------|--------0-0-0-2-0-|--2--2-------------|--------0-0-0-2-0-|
A|---------3-3-2-0---|------------------|---------3-3-2-0---|------------------|
E|-----------------3-|-3--3-------------|-----------------3-|-3--3-------------|


Ritornello
G|----------------------|-------------------|-------------------|-----------------|
D|----------------------|-0---0---0---0-0-2-|-----2-------------|--------0--0-2-0-|
A|--------------------0-|--------------2----|---------3-3-2-0---|-----------------|
E|--3---3---3---3-2-3---|-------------------|-0---------------3-|-3--3------------|

G|----------------------|-------------------|-------------------|-----------------|
D|----------------------|-0---0---0---0-0-2-|-----2-------------|--------0--0-2-0-|
A|--------------------0-|--------------2----|---------3-3-2-0---|-----------------|
E|--3---3---3---3-2-3---|-------------------|-0---------------3-|-3--3------------|

…e cambia e cambia…
G|-------------------|------------------|-------------------|------------------|
D|--2--2-------------|--------0-0-0-2-0-|--2--2-------------|--------0-0-0-2-0-|
A|---------3-3-2-0---|------------------|---------3-3-2-0---|------------------|
E|-----------------3-|-3--3-------------|-----------------3-|-3--3-------------|



Intermezzo (“tromba”)
G|-------------------|------------------|-------------------|------------------|
D|--2--2-------------|--------0-0-0-2-0-|--2--2-------------|--------0-0-0-2-0-|
A|---------3-3-2-0---|------------------|---------3-3-2-0---|------------------|
E|-----------------3-|-3--3-------------|-----------------3-|-3--3-------------|


Strofa: (basso inizia su “qual è qual è la mia direzione”)
G|-------------------|------------------|-------------------|------------------|
D|-------------------|------------------|-------------------|------------------|
A|-------------------|------------------|-------------------|------------------|
E|-------------------|------------------|-------------------|------------------|

G|-------------------|------------------|-------------------|------------------|
D|--2--2-------------|--------0-0-0-2-0-|--2--2-------------|--------0-0-0-2-0-|
A|---------3-3-2-0---|------------------|---------3-3-2-0---|------------------|
E|-----------------3-|-3--3-------------|-----------------3-|-3--3-------------|


Intermezzo (fischio-chitarra elettrica)
G|---------------------------------|---------------------------|
D|--------------------------0------|---------0--0----0-2-------|
A|--0---0----0-2-3--3----2-3-------|-------0-------------------|
E|----------3-----------------3--3-|--3-2-3--------------------|


Ritornello
G|----------------------|-------------------|-------------------|-----------------|
D|----------------------|-0---0---0---0-0-2-|-----2-------------|--------0--0-2-0-|
A|--------------------0-|--------------2----|---------3-3-2-0---|-----------------|
E|--3---3---3---3-2-3---|-------------------|-0---------------3-|-3--3------------|

G|----------------------|-------------------|-------------------|-----------------|
D|----------------------|-0---0---0---0-0-2-|-----2-------------|--------0--0-2-0-|
A|--------------------0-|--------------2----|---------3-3-2-0---|-----------------|
E|--3---3---3---3-2-3---|-------------------|-0---------------3-|-3--3------------|

…e cambia e cambia…
G|-------------------|------------------|-------------------|------------------|
D|--2--2-------------|--------0-0-0-2-0-|--2--2-------------|--------0-0-0-2-0-|
A|---------3-3-2-0---|------------------|---------3-3-2-0---|------------------|
E|-----------------3-|-3--3-------------|-----------------3-|-3--3-------------|


Intermezzo (“tromba”)
G|-------------------|------------------|-------------------|------------------|
D|--2--2-------------|--------0-0-0-2-0-|--2--2-------------|--------0-0-0-2-0-|
A|---------3-3-2-0---|------------------|---------3-3-2-0---|------------------|
E|-----------------3-|-3--3-------------|-----------------3-|-3--3-------------|


Chiusura (fischio, tromba, elettrica, di tutto!)                          Finale
G|---------------------------------|---------------------------|         |-------|
D|--------------------------0------|---------0--0----0-2-------|   x 6   |-------|
A|--0---0----0-2-3--3----2-3-------|-------0-------------------|         |-------|
E|----------3-----------------3--3-|--3-2-3--------------------|         |---3---|


7VanderWalter
 
Messaggi: 21

Re: Il mio corpo che cambia - Litfiba

Messaggiodi Dario96

che tipo di pennata hai usato nel video? non riesco a capire la ritmica....


Dario96
 
Messaggi: 3



Torna a Accordi TAB Riff testo chords - Studiare canzoni


Chi c’è in linea

Visitano il forum: Nessuno e 36 ospiti