Accordi Tab Intro Solo Survivor (Rocky) - Eye of the tiger

Hai trovato gli accordi chords di una canzone ad orecchio e vorresti suggerirla? Oppure vuoi proporre la TAB per chitarra del tuo Riff preferito? il testo? Questo è il forum giusto! Anche per suggerimenti sul ritmo di una canzone. Ricordati di usare la funzione cerca...

Accordi Tab Intro Solo Survivor (Rocky) - Eye of the tiger

Messaggiodi Angelocaduto




E' impossibile da trovare


Apparenza è il modo con cui le persone intelligenti chiamano la realtà
Angelocaduto
 
Messaggi: 18


Messaggiodi storm

devi specificare cosa vuoi....tab o accordi?


storm
 
Messaggi: 420
Località: Sicily

Messaggiodi storm

Codice: Seleziona tutto
Cm     Ab            Bb                     Cm
Rising up back on the bleep...
Cm                         Ab   
Went the distance, now I'm back on my bleep
       Bb                     Cm
just a bleep and his ...



CHORUS:
Bb   Cm  Fm                    Eb             Bb
It's the  Eye Of The Tiger It's ...
Bb Cm  Fm                         Cm     Bb
rising up to the challenge of our ri  -  val
Bb   Cm  Fm                       Eb      Bb
And the last known survivor bleeps...
Bb  Cm   Fm          Eb             Ab               Cm
and he's watching us all with the bleep - of the Tiger




qui ci sono gli accordi.....


storm
 
Messaggi: 420
Località: Sicily

Messaggiodi storm

Codice: Seleziona tutto
e|----------------------------------------|
B|----------------------------------------|
G|----------------------------------------|
D|-9-----9-7-9-----9-7-9-----9-7-5--5-5-5-|
A|-9-----9-7-9-----9-7-9-----9-7-5--5-5-5-|
E|-7-----7-5-7-----7-5-7-----7-5-3--3-3-3-|

Riff 1 - play this twice

e|---------------------------------------------------------------|
B|---------------------------------------------------------------|
G|---------------------------------------------------------------|
D|-9-9-9-9-9-9--9-7-9--9-9-9-9-9--9-7-9--9-9-9-9-9--9-7-5--5-5-5-|
A|-9-9-9-9-9-9--9-7-9--9-9-9-9-9--9-7-9--9-9-9-9-9--9-7-5--5-5-5-|
E|-7-7-7-7-7-7--7-5-7--7-7-7-7-7--7-5-7--7-7-7-7-7--7-5-3--5-5-5-|

Verse 1 - play this twice

e|-----------------|-----------------|-----------------|-----------------|
B|-----------------|-----------------|-----------------|-----------------|
G|-----------------|-----------------|-----------------|-----------------|
D|-9-9-9-9-9-9-9-9-|-5-5-5-5-5-5-5-5-|-7-7-7-7-7-7-7-7-|-4-4-4-4-4-4-4-4-|
A|-9-9-9-9-9-9-9-9-|-5-5-5-5-5-5-5-5-|-7-7-7-7-7-7-7-7-|-4-4-4-4-4-4-4-4-|
E|-7-7-7-7-7-7-7-7-|-3-3-3-3-3-3-3-3-|-5-5-5-5-5-5-5-5-|-2-2-2-2-2-2-2-2-|

Riff 2 - play this four times

e|---------------------------------------------------------------|
B|---------------------------------------------------------------|
G|---------------------------------------------------------------|
D|-9-9-9-9-9-9--9-7-9--9-9-9-9-9--9-7-9--9-9-9-9-9--9-7-5--5-5-5-|
A|-9-9-9-9-9-9--9-7-9--9-9-9-9-9--9-7-9--9-9-9-9-9--9-7-5--5-5-5-|
E|-7-7-7-7-7-7--7-5-7--7-7-7-7-7--7-5-7--7-7-7-7-7--7-5-3--5-5-5-|

Verse 2 - play this twice

e|-----------------|-----------------|-----------------|-----------------|
B|-----------------|-----------------|-----------------|-----------------|
G|-----------------|-----------------|-----------------|-----------------|
D|-9-9-9-9-9-9-9-9-|-5-5-5-5-5-5-5-5-|-7-7-7-7-7-7-7-7-|-4-4-4-4-4-4-4-4-|
A|-9-9-9-9-9-9-9-9-|-5-5-5-5-5-5-5-5-|-7-7-7-7-7-7-7-7-|-4-4-4-4-4-4-4-4-|
E|-7-7-7-7-7-7-7-7-|-3-3-3-3-3-3-3-3-|-5-5-5-5-5-5-5-5-|-2-2-2-2-2-2-2-2-|

Outro - play this twice

e|---------------------------------------------|
B|---------------------------------------------|
G|---------------------------------------------|
D|-9-----9-7-9-----9-7-9-----9-7-5--5-5-5-----9|
A|-9-----9-7-9-----9-7-9-----9-7-5--5-5-5-----9|
E|-7-----7-5-7-----7-5-7-----7-5-3--3-3-3-----7|



e qui il tab.....ricorda....IMPOSSIBLE IS NOTHING


storm
 
Messaggi: 420
Località: Sicily

Messaggiodi EletricMirko

saro scemo ma io non ho ancora capito come leggere la tabulatura....ci sono piu numerini in verticale.....qule nota devo fare per prima??


EletricMirko
 
Messaggi: 65

Messaggiodi SoundOfDreams

no.. è la tab che è fatta male... i numerini in verticali sono doppi perchè praticamente una riga continua a capo.. e per chi nn è abituato confonde un po...


SoundOfDreams
 
Messaggi: 12638
Località: Villa Literno (Caserta)

Messaggiodi Guit'EmAll

EletricMirko ha scritto:saro scemo ma io non ho ancora capito come leggere la tabulatura....ci sono piu numerini in verticale.....qule nota devo fare per prima??



Mi riallaccio ad un power chord di Storm come esempio:


----------------------- <----prima corda (quella più sottile)
-----------------------
-----------------------
-------9---------------
-------9---------------
-------7--------------- <----sesta corda (quella più spessa)

In questo caso devi suonare CONTEMPORANEAMENTE (=SOVRAPPONENDO I SUONI) LA SESTA CORDA, LA QUINTA CORDA E LA QUARTA CORDA. Lo puoi fare in due modi:

1) dando un'unica plettrata SOLO SU QUESTE TRE CORDE;

2) "pizzicando" con tre dita della mano destra QUESTE TRE CORDE TUTTE INSIEME CONTEMPORANEAMENTE.


:wink:


Guit'EmAll
 
Messaggi: 10366
Località: VI PIACEREBBE SAPERLO, EH??? :D

Messaggiodi EletricMirko

Grazie mille!Ora finalmente comincio a capire!
Troppo gentile!!!


EletricMirko
 
Messaggi: 65

Messaggiodi EletricMirko

SoundOfDreams...nopn capisco cosa c è di doppio....(scusate l'ignoranza..)


EletricMirko
 
Messaggi: 65

Messaggiodi Guit'EmAll

EletricMirko ha scritto:Grazie mille!Ora finalmente comincio a capire!
Troppo gentile!!!


Figurati! :wink:


Guit'EmAll
 
Messaggi: 10366
Località: VI PIACEREBBE SAPERLO, EH??? :D

Messaggiodi SoundOfDreams

EletricMirko ha scritto:SoundOfDreams...nopn capisco cosa c è di doppio....(scusate l'ignoranza..)
niente scusa.. credevo ti riferissi alla doppia riga che ha ogni corda.. tipo questa
Codice: Seleziona tutto
E|-7-7-7-7-7-7-7-7-|-3-3-3-3-3-3-3-3-|-5-5-5-5-5-5-5-5-|
-2-2-2-2-2-2-2-2-|


SoundOfDreams
 
Messaggi: 12638
Località: Villa Literno (Caserta)

Accordi Tab Intro Solo Survivor (Rocky) - Eye of the tiger

Messaggiodi Cleopatra83

FANTASTICO!!!!Nn mi ero accorta che c'erano gli accordi di questa canzone su questo sito...siccome la devo studiare stavo facendo una ricerca su google..e guardate un pò dove mi ha mandato :lol:..è proprio destino :!:


gli amici sono angeli silenziosi che ti aiutano a rimmetterti in piedi quando le tue ali non si ricordano più come si fa a volare...

music is my life!!!
Cleopatra83
 
Messaggi: 331
Località: Viareggio

Accordi Tab Intro Solo Survivor (Rocky) - Eye of the tiger

Messaggiodi Guit'EmAll

:-DD


Guit'EmAll
 
Messaggi: 10366
Località: VI PIACEREBBE SAPERLO, EH??? :D

Re: Rocky III- Eye of the tiger

Messaggiodi vigasi93

c'è nessuno che ha un video chiaro della tab?


vigasi93
 
Messaggi: 13

Re: Rocky III- Eye of the tiger

Messaggiodi Hurt

Prova a guardare questo.
poi ce ne sono altri


"Rotolavo attraverso i giorni come una testa tagliata che sta finendo una frase"
(Amy Hempel - The Harvest)
Hurt
 
Messaggi: 118
Località: Milano

Prossimo


Torna a Accordi TAB Riff testo chords - Studiare canzoni


Chi c’è in linea

Visitano il forum: Nessuno e 18 ospiti