Accordi Tab Ritmo Sei nell'anima - Gianna Nannini

Hai trovato gli accordi chords di una canzone ad orecchio e vorresti suggerirla? Oppure vuoi proporre la TAB per chitarra del tuo Riff preferito? il testo? Questo è il forum giusto! Anche per suggerimenti sul ritmo di una canzone. Ricordati di usare la funzione cerca...

Accordi Tab Ritmo Sei nell'anima - Gianna Nannini

Messaggiodi rufus89




secondo me è una delle canzoni più belle del momento e cantata alla luce di un falò sarebbe il massimo ed oltre tutto è molto facile( la so' suonare persino io)... intanto ve la posto, se vi piace entro pochi giorni mi faccio prestare la webcam e faccio anche il video. Ah dimenticavo, le pennate io le faccio per ogni accordo G GSGSGS, mi sembra il ritmo giusto...

G= giù
S= sù


Codice: Seleziona tutto
Sol            Do        Sol
Vado punto e a capo così
             Do                  Sol
spegnerò le luci e poi qui sparirai
      Do     Sol
pochi attimi
             Do     Sol
oltre questa nebbia
              Do    Sol
oltre il temporale
               Do          Sol
c'è una notte lunga e limpida
     Do
finirà

Mi-               Do
ma è la tenerezza
              Re.
e ci fa paura

             Sol
Sei nell'anima
                   Do
e lì ti lascio per sempre
              La-
sospeso immobile

fermo immagine
                 Re
un segno che non passa mai



Sol            Do          Sol
Vado punto e a capo vedrai
               Do             Sol
quel che resta indietro non è
               Do     Sol
tutto falso e inutile
        Do Sol
capirai
                Do     Sol
Lascio andare i giorni
                Do    Sol
tra certezze e sbagli
             Do              Sol
è una strada stretta stretta
        Do
fino a te
Mi-              Do
quanta tenerezza
                 Re.
non fa più paura
             Sol
Sei nell'anima
                   Do
e lì ti lascio per sempre
                     La-
sei in ogni parte di me

ti sento scendere
                Re
fra respiro e battito
             Sol
sei nell'anima

Do La- Re (Strum.)

             Sol
Sei nell'anima
                      Do
in questo spazio indifeso
                 La-
inizia tutto con te

non ci serve un perchè
                Re
siamo carne e fiato
                 Sol
nananananananana
                 Do
nananananananana
                 Sol
nananananananana
                                 Do
goccia a goccia nananananananana
                                 Do
fianco a fianco nananananananana
                 Sol
nananananananana
                 Do
nananananananana
                 Sol
nananananananana
Ultima modifica di rufus89 su , modificato 1 volte in totale.


"In ogni conflitto le manovre regolari portano allo scontro, e quelle imprevedibili alla vittoria." (Sun Tzu - L'arte della guerra)

Accordi e tab Asaf Avidan
rufus89
 
Messaggi: 1002
Località: Latina


Messaggiodi studiopl

:x
Grazie Refuse89 per il testo lo cercavo disperatamente, credo sia proprio facile da suonare, insomma, credo di sì anche per chi è alle prime....note come me?!
:cry:


studiopl
 
Messaggi: 10

Ma a Cosa serve il ritmo proprio non riesco a capirlo...

Messaggiodi 84Andrea84

Scusate, sto provando a suonare la canzone "sei nell'anima" di G. Nannini....ma mi potete spiegare a cosa mi servono tutte quelle pennate su e giu continuamente? Trovo molto piu logico cantare con due pennate ad ogni frase della canzone...A che mi serve imparare il ritmo della canzone? :cry: Aiutatemi!!!

Ps: sono nuovo di qua, quindi non giudicatemi troppo male, non sono un esperto di strumenti musicali, anche se ho fatto qualche mese di pianoforte....ma chi si ricorda qualcosa è bravo :lol:


84Andrea84
 
Messaggi: 1

Messaggiodi Chewingum

Ad un certo punto c'è Mi-Do x3

Vuol dire che devo fare Mi Do Mi Do Mi Do

oppure

Mi Mi Mi Do Do Do ?

E poi qui le pennate come vanno fatte ?

Grazie :D


Chewingum
 
Messaggi: 26

Messaggiodi Chewingum

O forse è Mi minore una volta e Do tre volte ??

Ma poi le pennate come si fanno? :(


Chewingum
 
Messaggi: 26

Messaggiodi rufus89

Chewingum ha scritto:O forse è Mi minore una volta e Do tre volte ??

Ma poi le pennate come si fanno? :(


si... le pennate G GSGSGS... cmq c'è scritto tutto nell'articolo


"In ogni conflitto le manovre regolari portano allo scontro, e quelle imprevedibili alla vittoria." (Sun Tzu - L'arte della guerra)

Accordi e tab Asaf Avidan
rufus89
 
Messaggi: 1002
Località: Latina

Messaggiodi Chewingum

rufus89 ha scritto:si... le pennate G GSGSGS... cmq c'è scritto tutto nell'articolo


Ah quindi è sempre così anche in quel punto...

Ok grazie mille. :!:


Chewingum
 
Messaggi: 26

Messaggiodi Dufresne

Giusto perchè chiesta da crazyfabiolo, a cui era stata richiesta da una utente (che macello, per questo l'avevo fatta più semplice :) )... non mi piace particolarmente la nannini...

il ritmo io lo faccio tre pennate giù...una su...

nell'inciso non chiedetemi che ritmo faccio perchè l'ho improvvisato e non lo so spiegare...cmq potete mantenere lo stesso ritmo che ho detto prima...

Flu però adesso fatti sentire, partecipa...non ti mangia nessuno...apparte guit... :lol:
Ultima modifica di Dufresne su , modificato 1 volte in totale.


Dufresne
 
Messaggi: 6160

Accordi Tab Ritmo Sei nell'anima - Gianna Nannini

Messaggiodi flu

Grazie Dufresne!Ma sai i forum mi intimidiscono :lol:: cmq nono piano piano la richiesta è partita da me ma una persona molto sciagurata poi l'ha chiesto a te!!Quindi cambia in "giusto perchè richiesto da xxxxxxxxxxxxxxxxxx"!!!!
Cmq si dai ora che ho visto il video ho capito che non ci arrivo proprio eh..son proprio impedita :lol: :lol: :lol:

:o bwò!


flu
 
Messaggi: 2

Re: ahah

Messaggiodi Guit'EmAll

flu ha scritto:son proprio impedit-"a" :lol: :lol: :lol:



Basta una parola, a volte una LETTERA, per renderti PIU' INTERESSANTE....
:mrgreen:


Guit'EmAll
 
Messaggi: 10366
Località: VI PIACEREBBE SAPERLO, EH??? :D

Messaggiodi flu

eh si l'essere femmina apre tutte le porte...basta vedere tipo Anna Tatangelo :lol: :lol: :lol: :lol:


flu
 
Messaggi: 2

Re: Sei nell'anima: Gianna Nannini

Messaggiodi slashizzy

rufus89 ha scritto:secondo me è una delle canzoni più belle del momento e cantata alla luce di un falò sarebbe il massimo

[/code]


Il massimo sarebbe se la suoni al falo' con una bella tipa vicino che dopo ti fa vedere che le è piaciuta l'esibizione.... :P


slashizzy
 
Messaggi: 769
Località: La terra della filosofia

Messaggiodi madioman

ma è possibile avere le tab della canzone? :P


madioman
 
Messaggi: 3

Messaggiodi lamento

madioman ha scritto:ma è possibile avere le tab della canzone? :P
Codice: Seleziona tutto
#----------------------------------PLEASE NOTE--------------------------------#
#This file is the author's own work and represents their interpretation of the#
#song. You may only use this file for private study, scholarship, or research.#
#-----------------------------------------------------------------------------#
#-- File created with Instab - http://www.pconline.com/~smcarey/instab.html --#
#-----------------------------------------------------------------------------#

Author/Artist: Gianna Nannini / Gianna Nannini - Gino Pacifico
Title: Sei nell'anima
Album: Grazie
Transcribed by: Graziano Primavera
Email: graz75@NOSPAMtin.it

L'arpeggio che fa da riff e che accompagna le strofe

------------------------------------------------------------------------------
------------------------------------------------------------------------------
-----0-----0------------------------------------------------------------------
-2/4---4/2---0----------------------------------------------------------------
------------------------------------------------------------------------------
------------------------------------------------------------------------------

L'arpeggio durante il ritornello

-----------------|-----------------|-----------------|-----------------|------
-----0-------0---|-----0-------0---|-----0-------0---|-----0-------0---|------
-------2-------2-|-------2-------2-|-------0-------0-|-------0-------0-|------
---0-------0-----|---0-------0-----|---2-------2-----|---2-------2-----|------
-----------------|-----------------|-3-------3-------|-3-------3-------|------
-3-------3-------|-3-------3-------|-----------------|-----------------|------
                                                                             

-----------------|-----------------|-----------------|-----------------|------
-----1-------1---|-----1-------1---|-----3-------3---|-----3-------3---|------
-------2-------2-|-------0-------0-|-------2-------2-|-------2-------2-|------
---2-------2-----|---2-------2-----|---0-------0-----|---0-------0-----|------
-0-------0-------|-3-------3-------|-----------------|-----------------|------
-----------------|-----------------|-2-------2-------|-2-------2-------|------

il riff dopo il primo ritornello ( da ripetere due volte )

------------------------------------------------------------------------------
------------------------------------------------------------------------------
-0-0-0-0-0-0-----0-----0------------------------------------------------------
-------------2/4---4/2---0----------------------------------------------------
------------------------------------------------------------------------------
------------------------------------------------------------------------------

L'accompagnamento delle strofe dopo il primo ritornello. Le note seguite dalla
"x" sono stoppate con la mano sinistra e con il palmo della destra.

------------------------------------------------------------------------------
------------------------------------------------------------------------------
-----------------------0-----0------------------------------------------------
-------------------2/4---4/2---0----------------------------------------------
-12x-10x-12x-10x--------------------------------------------------------------
------------------------------------------------------------------------------
                                                                             
L'assolo                                                                             

-10-10-10-----8-7-7v-------------8-8-7-5v-------------------------------------
---------------------5vv---5-5-5------------13-13-13---12-12-12---10-10-10----
------------------------------------------------------------------------------
------------------------------------------------------------------------------
------------------------------------------------------------------------------
------------------------------------------------------------------------------
                                                                             

------------------------------------------------------------------------------
-8-8-8---7-7-7---5-5-5---3-3-3------------------------------------------------
------------------------------------------------------------------------------
------------------------------------------------------------------------------
------------------------------------------------------------------------------
------------------------------------------------------------------------------

L'accordo fatto con gli armonici che si sente nel finale

------------------------------------------------------------------------------
-7h---------------------------------------------------------------------------
-7h---------------------------------------------------------------------------
-7h---------------------------------------------------------------------------
------------------------------------------------------------------------------
------------------------------------------------------------------------------


lamento
 
Messaggi: 39

Messaggiodi Andre988Roma

vedo che è un topic un po' vecchiotto, lo riprendo giusto x dirvi che io la suono con un ritmo G GS G GS e mi sembra che suoni molto bene!


L'hanno visto l'altro giorno per l'ennesima volta in piazza.. molti lo reputano l'idiota del paese.. alcuni altri lo considerano un mito.. tutti quanti lo salutano e tutti quanti si chiedono come kazzo mai avrà deciso di chiamare suo figlio Elvis!
Andre988Roma
 
Messaggi: 15
Località: La città eterna

Prossimo


Torna a Accordi TAB Riff testo chords - Studiare canzoni


Chi c’è in linea

Visitano il forum: Nessuno e 18 ospiti