Trough the monsoon- Tokio Hotel

Hai trovato gli accordi chords di una canzone ad orecchio e vorresti suggerirla? Oppure vuoi proporre la TAB per chitarra del tuo Riff preferito? il testo? Questo è il forum giusto! Anche per suggerimenti sul ritmo di una canzone. Ricordati di usare la funzione cerca...

Trough the monsoon- Tokio Hotel

Messaggiodi Manuele

Ho bisogno degli accordi di questa canzone (tokio Hotel) qualcuno può fornirmeli? grazie :)


Manuele
 
Messaggi: 64


Messaggiodi Mr. D

Ecco...

Codice: Seleziona tutto
=========================
       Tokio Hotel
  "Through The Monsoon"
From the album "Scream"
=========================

Guitar tab for the entire song, tabbed by Linkerman.
I arranged the tab for one guitar only, since
Tom Kaulitz recorded this song in two takes,
with two independent guitar tracks.
Comments to "o_samaritano-hellboy(at)sapo.pt"


Verse 1

e|-----------------------|-----------------------|
B|-----------------------|-----------------------|
G|-----------------------|-----------------------| x5
D|--6----6--7----7--6\---|--2----2--3----3--2----|
A|--7----7--7----7--7\---|--3----3--3----3--3----|
E|-----------------------|-----------------------|

e|-----------------------|-----------------------|
B|-----------------------|-----------------------|
G|-----------------------|--0----0--0----0--0----|
D|--7----7--7----7--7----|--0----0--0----0--0----|
A|--7----7--7----7--7----|--2----2--2----2--2----|
E|--5----5--5----5--5----|--3----3--3----3--3----|


e|-----------------------|-----------------------|
B|-----------------------|-----------------------|
G|-----------------------|-----------------------| x3
D|--6----6--7----7--6\---|--2----2--3----3--2----|
A|--7----7--7----7--7\---|--3----3--3----3--3----|
E|-----------------------|-----------------------|

e|-----------------------|-----------------------|
B|-----------------------|-----------------------|
G|-----------------------|--0----0--0----0--0----|
D|--7----7--7----7--7----|--0----0--0----0--0----|
A|--7----7--7----7--7----|--2----2--2----2--2----|
E|--5----5--5----5--5----|--3----3--3----3--3----|


Chorus 1

e|--3--------3--------3-----|--2--------2--------2-----|--3--------3--------3-----|
B|-----5--------5--------5--|-----3--------3--------3--|-----5--------5--------5--|
G|--------5--------5--------|--------2--------2--------|--------4--------4--------|
D|--------------------------|--------------------------|--------------------------|
A|--------------------------|--------------------------|--------------------------|
E|--------------------------|--------------------------|--------------------------|

e|--------------------------|--3--------3--------3-----|--2--------2--------2-----|
B|--7--------7--------7-----|-----5--------5--------5--|-----3--------3--------3--|
G|-----7--------7--------7--|--------5--------5--------|--------2--------2--------|
D|--------9--------9--------|--------------------------|--------------------------|
A|--------------------------|--------------------------|--------------------------|
E|--------------------------|--------------------------|--------------------------|

e|--------------------------|--3--------3--------3-----|
B|--7--------7--------7-----|-----5--------5--------5--|
G|-----7--------7--------7--|--------4--------4--------|
D|--------9--------9--------|--------------------------|
A|--------------------------|--------------------------|
E|--------------------------|--------------------------|

e|--3--------3--------3-----|--2~~~----------------|
B|-----5--------5--------5--|--3~~~----------------|
G|--------5--------5--------|--2~~~----------------|
D|--------------------------|----------------------|
A|--------------------------|----------------------|
E|--------------------------|----------------------|


Verse 2

e|-----------------------|-----------------------|
B|-----------------------|-----------------------|
G|-----------------------|-----------------------| x5
D|--6----6--7----7--6\---|--2----2--3----3--2----|
A|--7----7--7----7--7\---|--3----3--3----3--3----|
E|-----------------------|-----------------------|

e|-----------------------|-----------------------|
B|-----------------------|-----------------------|
G|-----------------------|--0----0--0----0--0----|
D|--7----7--7----7--7----|--0----0--0----0--0----|
A|--7----7--7----7--7----|--2----2--2----2--2----|
E|--5----5--5----5--5----|--3----3--3----3--3----|


e|-----------------------|-----------------------|
B|-----------------------|-----------------------|
G|-----------------------|-----------------------| x3
D|--6----6--7----7--6\---|--2----2--3----3--2----|
A|--7----7--7----7--7\---|--3----3--3----3--3----|
E|-----------------------|-----------------------|

e|-----------------------|-----------------------|
B|-----------------------|-----------------------|
G|-----------------------|--0----0--0----0--0----|
D|--7----7--7----7--7----|--0----0--0----0--0----|
A|--7----7--7----7--7----|--2----2--2----2--2----|
E|--5----5--5----5--5----|--3----3--3----3--3----|


Chorus 2

e|--3--------3--------3-----|--2--------2--------2-----|--3--------3--------3-----|
B|-----5--------5--------5--|-----3--------3--------3--|-----5--------5--------5--|
G|--------5--------5--------|--------2--------2--------|--------4--------4--------|
D|--------------------------|--------------------------|--------------------------|
A|--------------------------|--------------------------|--------------------------|
E|--------------------------|--------------------------|--------------------------|

e|--------------------------|--3--------3--------3-----|--2--------2--------2-----|
B|--7--------7--------7-----|-----5--------5--------5--|-----3--------3--------3--|
G|-----7--------7--------7--|--------5--------5--------|--------2--------2--------|
D|--------9--------9--------|--------------------------|--------------------------|
A|--------------------------|--------------------------|--------------------------|
E|--------------------------|--------------------------|--------------------------|

e|--------------------------|--3--------3--------3-----|
B|--7--------7--------7-----|-----5--------5--------5--|
G|-----7--------7--------7--|--------4--------4--------|
D|--------9--------9--------|--------------------------|
A|--------------------------|--------------------------|
E|--------------------------|--------------------------|

(Here Tom starts using full overdrive and power chords on the second
take of the track, but you should keep playing the lead guitar chorus)

e|--3--------3--------3-----|--2--------2--------2-----|--3--------3--------3-----|
B|-----5--------5--------5--|-----3--------3--------3--|-----5--------5--------5--|
G|--------5--------5--------|--------2--------2--------|--------4--------4--------|
D|--------------------------|--------------------------|--------------------------|
A|--------------------------|--------------------------|--------------------------|
E|--------------------------|--------------------------|--------------------------|

e|--------------------------|--3--------3--------3-----|--2--------2--------2-----|
B|--7--------7--------7-----|-----5--------5--------5--|-----3--------3--------3--|
G|-----7--------7--------7--|--------5--------5--------|--------2--------2--------|
D|--------9--------9--------|--------------------------|--------------------------|
A|--------------------------|--------------------------|--------------------------|
E|--------------------------|--------------------------|--------------------------|


Bridge
(Bill Kaulitz screams "Hey!")

e|--------------------------|--------------------------|
B|--------------------------|--------------------------|
G|--------------------------|--------------------------| x6
D|--7--7--7--6--6--6--x--x--|--3--3--3--2--2--2--x--x--|
A|--7--7--7--7--7--7--x--x--|--3--3--3--3--3--3--x--x--|
E|--------------------------|--------------------------|

e|----------------------|
B|----------------------|
G|----------------------|
D|--2~~~----------------|
A|--2~~~----------------|
E|--0~~~----------------|

e|--12------14----12------|----------------------|
B|------------------------|--13~~~---------------|
G|------------------------|----------------------| x3
D|------------------------|----------------------|
A|------------------------|----------------------|
E|------------------------|----------------------|

e|--12~~~-----------------|
B|------------------------|
G|------------------------|
D|------------------------|
A|------------------------|
E|------------------------|


Verse 3

e|--------------------------|--------------------------|--------------------------|
B|--------------------------|--------------------------|--------------------------|
G|--------------------------|--------------------------|--------------------------|
D|--------------------------|--5--5--5--5--5--5--5--5--|--7--7--7--7--7--7--7--7--|
A|--------------------------|--3--3--3--3--3--3--3--3--|--5--5--5--5--5--5--5--5--|
E|--------------------------|--3--3--3--3--3--3--3--3--|--5--5--5--5--5--5--5--5--|

e|--------------------------|--------------------------|--------------------------|
B|--------------------------|--------------------------|--------------------------|
G|--------------------------|--------------------------|--5--5--5--5--5--5--5--5--|
D|--9--9--9--9--9--9--9--9--|--9--9--9--9--9--9--9--9--|--5--5--5--5--5--5--5--5--|
A|--7--7--7--7--7--7--7--7--|--9--9--9--9--9--9--9--9--|--3--3--3--3--3--3--3--3--|
E|--7--7--7--7--7--7--7--7--|--7--7--7--7--7--7--7--7--|--3--3--3--3--3--3--3--3--|

e|--------------------------|--------------------------|--------------------------|
B|--------------------------|--------------------------|--------------------------|
G|--7--7--7--7--7--7--7--7--|--------------------------|--9--9--9--9--9--9--9--9--|
D|--7--7--7--7--7--7--7--7--|--9--9--9--9--9--9--9--9--|--9--9--9--9--9--9--9--9--|
A|--5--5--5--5--5--5--5--5--|--9--9--9--9--9--9--9--9--|--7--7--7--7--7--7--7--7--|
E|--5--5--5--5--5--5--5--5--|--7--7--7--7--7--7--7--7--|--7--7--7--7--7--7--7--7--|

e|--------------------------|--------------------------|--------------------------|
B|--------------------------|--------------------------|--------------------------|
G|--5--5--5--5--5--5--5--5--|--7--7--7--7--7--7--7--7--|--9--9--9--9--9--9--9--9--|
D|--5--5--5--5--5--5--5--5--|--7--7--7--7--7--7--7--7--|--9--9--9--9--9--9--9--9--|
A|--3--3--3--3--3--3--3--3--|--5--5--5--5--5--5--5--5--|--7--7--7--7--7--7--7--7--|
E|--3--3--3--3--3--3--3--3--|--5--5--5--5--5--5--5--5--|--7--7--7--7--7--7--7--7--|

e|--------------------------|--------------------------|--------------------------|
B|--------------------------|--------------------------|--------------------------|
G|--------------------------|--5--5--5--5--5--5--5--5--|--7--7--7--7--7--7--7--7--|
D|--9--9--9--9--9--9--9--9--|--5--5--5--5--5--5--5--5--|--7--7--7--7--7--7--7--7--|
A|--9--9--9--9--9--9--9--9--|--3--3--3--3--3--3--3--3--|--5--5--5--5--5--5--5--5--|
E|--7--7--7--7--7--7--7--7--|--3--3--3--3--3--3--3--3--|--5--5--5--5--5--5--5--5--|


Ending

e|-----------------------|-----------------------|
B|-----------------------|-----------------------|
G|-----------------------|-----------------------| x3
D|--6----6--7----7--6\---|--2----2--3----3--2----|
A|--7----7--7----7--7\---|--3----3--3----3--3----|
E|-----------------------|-----------------------|

e|-----------------------|--------------------------|
B|-----------------------|--------------------------|
G|-----------------------|--0--0-----0-----0--0~~~--|
D|--6----6--7----7--6\---|--2--2-----2-----2--2~~~--|
A|--7----7--7----7--7\---|--3--3-----3-----3--3~~~--|
E|-----------------------|--------------------------|


Tratta da: http://www.911tabs.com

Video: http://www.youtube.com/watch?v=zKmz6dKJqa8


Mr. D
 
Messaggi: 1869
Località: MI

Messaggiodi Manuele

e gli accordi?


Manuele
 
Messaggi: 64

Messaggiodi SoundOfDreams

"Grazie per avermi cercato la tab"


....


SoundOfDreams
 
Messaggi: 12638
Località: Villa Literno (Caserta)

Messaggiodi Mr. D

Prova questi...


Codice: Seleziona tutto
verse 1
E            C
I'm staring at a broken door,
E               C
There's nothing left here anymore.
E           C
My room is cold,
                A7     A
It's making me insane.

E         C
I've been waiting here so long,
E       C
Another moment seems to 've come,
E           C                 A7      A   
I see the dark clouds coming up again.

CHORUS
                    C
Running through the monsoon,
           D
Beyond the world,
               Em
To the end of time,
                    Bm
Where the rain won't hurt

             C
Fighting the storm,
         D
Into the blue,
                   Bm              Em 
And when I loose myself I think of you,
                  C                 D
Together we'll be running somewhere new…

                     E C
Through the monsoon.
                 E C
Just me and you.

verse 2

E              C
A half moon's fading from my sight,
E           C
I see your vision in its light.
E            C                A7      G   
But now it's gone and left me so alone

E         C   
I know I have to find you now,
E             C                  E
Can hear your name, I don't know how.
             C                            A7
Why can't we make this darkness feel like home?

CHORUS
                    C
Running through the monsoon,
           D
Beyond the world,
               Em
To the end of time,
                    Bm
Where the rain won't hurt

             C
Fighting the storm,
         D
Into the blue,
                   Bm              Em 
And when I loose myself I think of you,
                  C                 D
Together we'll be running somewhere new…

                Em                Bm
And nothing can hold me back from you.

C                 D   
Through the monsoon.

BRIDGE
E  C
Hey!
E            C
I'm fighting all this power,
E            C
Coming in my way
E              C
Let it sail me straight to you,
E                         C
I'll be running night and day.

(soft)
                       E C
I'll be with you soon…
                E C
Just me and you.
                     E C
We'll be there soon…
         C
So soon.

CHORUS
                    C
Running through the monsoon,
           D
Beyond the world,
               Em
To the end of time,
                    Bm
Where the rain won't hurt

             C
Fighting the storm,
         D
Into the blue,
                   Bm              Em 
And when I loose myself I think of you,
                  C                 D
Together we'll be running somewhere new…

                Em                Bm
And nothing can hold me back from you.

                    C  D   
Through the monsoon.
                    E  C
Through the monsoon.
                E  C
Just me and you.
                    E  C     
Through the monsoon.
        E      C C C C   
Just me and you


Tratta da: http://www.911tabs.com


Mr. D
 
Messaggi: 1869
Località: MI

Messaggiodi Mr. D

Trovato questi...

Codice: Seleziona tutto
Capo 1

Intro: D-Bes-D-Bes

verse 1
D            Bes
I'm staring at a broken door,
D               Bes
There's nothing left here anymore.
D           Bes
My room is cold,
                G7     G
It's making me insane.

D         Bes
I've been waiting here so long,
D       Bes
Another moment seems to 've come,
D           Bes              G7      G   
I see the dark clouds coming up again.

CHORUS
                    Bes
Running through the monsoon,
           C
Beyond the world,
               Dm
To the end of time,
                    Am
Where the rain won't hurt

             Bes
Fighting the storm,
         C
Into the blue,
                   Am              Dm 
And when I loose myself I think of you,
                  Bes               C
Together we'll be running somewhere new…

                     D Bes
Through the monsoon.
                 D Bes
Just me and you.

verse 2

D              Bes
A half moon's fading from my sight,
D           Bes
I see your vision in its light.
D            Bes              G7     G   
But now it's gone and left me so alone

D         Bes   
I know I have to find you now,
D             Bes                D
Can hear your name, I don't know how.
             Bes                          G7   G   
Why can't we make this darkness feel like home?

CHORUS
                    Bes
Running through the monsoon,
           C
Beyond the world,
               Dm
To the end of time,
                    Am
Where the rain won't hurt

             Bes
Fighting the storm,
         C
Into the blue,
                   Am              Dm 
And when I loose myself I think of you,
                  Bes               C
Together we'll be running somewhere new…

                Dm                Am
And nothing can hold me back from you.

Bes               C   
Through the monsoon.

BRIDGE
D  Bes 2X
Hey!
D            Bes
I'm fighting all this power,
D            Bes
Coming in my way
D              Bes
Let it sail me straight to you,
D                         Bes
I'll be running night and day.

(soft)
                       D Bes
I'll be with you soon…
                D Bes
Just me and you.
                     D Bes
We'll be there soon…
         Bes
So soon.

CHORUS
                    Bes
Running through the monsoon,
           C
Beyond the world,
               Dm
To the end of time,
                    Am
Where the rain won't hurt

             Bes
Fighting the storm,
         C
Into the blue,
                   Am             Dm 
And when I loose myself I think of you,
                  Bes               C
Together we'll be running somewhere new…

                Dm                Am
And nothing can hold me back from you.

                    Bes  C   
Through the monsoon.
                    D  Bes
Through the monsoon.
                D  Bes
Just me and you.
                    D  Bes     
Through the monsoon.
        D      Bes Bes Bes Bes   
Just me and you


Tratti da: http://www.911tabs.com

Anche se non capisco cosa voglia dire "Bes"( B è il SI, ma "es"? )


Mr. D
 
Messaggi: 1869
Località: MI

Messaggiodi Manuele

grazie :)


Manuele
 
Messaggi: 64

Messaggiodi kitarra92

scusami quale dei 3 è per chitarra?o che differenza c'è fra tutti e 3?c'è uno per il basso? :?: (scusate le troppe domande)...


io amo gli strumenti a corda ma di piu kitarra e basso...e amo i tokio hotel!!!
kitarra92
 
Messaggi: 12

Messaggiodi Guit'EmAll

Sono tutti e tre per chitarra. La prima è una Tab = Intavolatura, gli altri due sono trascrizioni di testi + sigle degli accordi.

Qui è spiegato come leggere le Tab -----> http://chitarradaspiaggia.com/forum/vie ... php?t=1190 :wink:

La Tab per chitarra è formata da 6 linee orizzontali rappresentanti le 6 corde della chitarra; la Tab per basso è formata da 4 linee orizzontali rappresentanti le 4 corde del basso.


:shock:
Ultima modifica di Guit'EmAll su , modificato 2 volte in totale.


Guit'EmAll
 
Messaggi: 10366
Località: VI PIACEREBBE SAPERLO, EH??? :D

Messaggiodi andrechallant

Anche se non capisco cosa voglia dire "Bes"( B è il SI, ma "es"? )

riporto su questa domanda perche' anche io non ho capito cos'e' Bes..
kitarra92 da quello che ho capito sei cantante no? tienile tutte e tre le versioni... la prima e' per suonarla in modo piu' approfondito, le altre due sono piu' per essere suonate ''sulla spiaggia'', sono uguali solo che hanno tonalita' diverse, quindi puoi dire al chitarrista di scegliere quale suonare in base alla tua voce...


''Parlare di musica è come ballare di architettura.'' [F.Zappa]

Liuteria costruire da soli la chitarra, tutte le discussioni rilevanti
andrechallant
 
Messaggi: 2004
Località: Torino

Messaggiodi Guit'EmAll

"es" = "bemolle"; "is" = "diesis".

L'accordo di "Bes" è l'accordo di "Bb":

http://www.solfege.org/SolfegeDocsC/Chord-names

http://chitarradaspiaggia.com/forum/vie ... highlight=


:wink:


Guit'EmAll
 
Messaggi: 10366
Località: VI PIACEREBBE SAPERLO, EH??? :D

Messaggiodi kitarra92

mamma mia grazie infinite!!!ultima domanda e non rompo piu!!!ihih...quelle e 3 sono buone anche per il basso?perchè in questa canzone c'e anche il basso ma non so qual è!!! :?: :?


io amo gli strumenti a corda ma di piu kitarra e basso...e amo i tokio hotel!!!
kitarra92
 
Messaggi: 12

Messaggiodi SoundOfDreams

Codice: Seleziona tutto
INTRO

g---------------------------------|    X2
d---------------------------------|
a-6-6-6-6-6-6-6-6-----------------|
e-----------------7-7-7-7-7-7-7-6-|

VERSE x2

g------------------------------------------------------------------|
d------------------------------------------------------------------|
a-6-6-6-6-6-6-6-6------------------6-6-6-6-6-6-6-6-----------------|
e-----------------7-7-7-7-7-7-7-6------------------7-7-7-7-7-7-7-6-|

g------------------------------------------------------------------|
d------------------------------------------------------------------|
a-6-6-6-6-6-6-6-6------------------6-6-6-6-6-6-6-6-----------------|
e-----------------7-7-7-7-7-7-7-6------------------7-7-7-7-7-7-7-6-|

CHORUS

g------------------------------------------------------------------|
d------------------------------------------------------------------|
a-2-2-2-2-2-2-2-2-4-4-4-4-4-4-4-4--6-6-6-6-6-6-6-6-4-4-4-4-4-4-4-4-|
e------------------------------------------------------------------|

g-----------------------------------------------------------------|
d-----------------------------------------------------------------|
a-2-2-2-2-2-2-2-2-4-4-4-4-4-4-4-4-----------------6-6-6-6-6-6-6-6-|
e----------------------------------6-6-6-6-6-6-6-6----------------|

g--------------------------------|
d--------------------------------|
a-2-2-2-2-2-2-2-2-4--------------|
e--------------------------------|

intro
verse

CHORUS

g------------------------------------------------------------------|
d------------------------------------------------------------------|
a-2-2-2-2-2-2-2-2-4-4-4-4-4-4-4-4--6-6-6-6-6-6-6-6-4-4-4-4-4-4-4-4-|
e------------------------------------------------------------------|

g-----------------------------------------------------------------|
d-----------------------------------------------------------------|
a-2-2-2-2-2-2-2-2-4-4-4-4-4-4-4-4-----------------6-6-6-6-6-6-6-6-|
e----------------------------------6-6-6-6-6-6-6-6----------------|

g------------------------------------------------------------------|
d------------------------------------------------------------------|
a-2-2-2-2-2-2-2-2-4-4-4-4-4-4-4-4--6-6-6-6-6-6-6-6-4-4-4-4-4-4-4-4-|
e------------------------------------------------------------------|

g---------------------------------|
d---------------------------------|
a-2-2-2-2-2-2-2-2-4-4-4-4-4-4-4-4-|
e---------------------------------|


BRIDGE

g------------------------------------------------------------------|  x3
d------------------------------------------------------------------|
a-6-6-6-6-6-6-6-6------------------6-6-6-6-6-6-6-6-----------------|
e-----------------7-7-7-7-7-7-7-6------------------7-7-7-7-7-7-7-6-|


g--
d--
a-6 let ring
e--

acustic interlude (bass tacet)

LAST CHORUS

g------------------------------------------------------------------|
d------------------------------------------------------------------|
a-2-2-2-2-2-2-2-2-4-4-4-4-4-4-4-4--6-6-6-6-6-6-6-6-4-4-4-4-4-4-4-4-|
e------------------------------------------------------------------|

g-----------------------------------------------------------------|
d-----------------------------------------------------------------|
a-2-2-2-2-2-2-2-2-4-4-4-4-4-4-4-4-----------------6-6-6-6-6-6-6-6-|
e----------------------------------6-6-6-6-6-6-6-6----------------|

g------------------------------------------------------------------|
d------------------------------------------------------------------|
a-2-2-2-2-2-2-2-2-4-4-4-4-4-4-4-4--6-6-6-6-6-6-6-6-4-4-4-4-4-4-4-4-|
e------------------------------------------------------------------|

g---------------------------------|
d---------------------------------|
a-2-2-2-2-2-2-2-2-4-4-4-4-4-4-4-4-|
e---------------------------------|


g------------------------------------------------------------------|  x2
d------------------------------------------------------------------|
a-6-6-6-6-6-6-6-6------------------6-6-6-6-6-6-6-6-----------------|
e-----------------7-7-7-7-7-7-7-6------------------7-7-7-7-7-7-7-6-|


ENDS ON

g----------|
d----------|
a-6-6-6-6--|
e--------7-| let ring

Il basso è questo.. na cavolata


SoundOfDreams
 
Messaggi: 12638
Località: Villa Literno (Caserta)

Messaggiodi kitarra92

grazie immensamente davvero... :shock:


io amo gli strumenti a corda ma di piu kitarra e basso...e amo i tokio hotel!!!
kitarra92
 
Messaggi: 12

Messaggiodi kitarra92

sapete solo se esiste uno spartito anche per la batteria?


io amo gli strumenti a corda ma di piu kitarra e basso...e amo i tokio hotel!!!
kitarra92
 
Messaggi: 12

Prossimo


Torna a Accordi TAB Riff testo chords - Studiare canzoni


Chi c’è in linea

Visitano il forum: Nessuno e 12 ospiti