Ligabue - Quando canterai la tua canzone

Hai trovato gli accordi chords di una canzone ad orecchio e vorresti suggerirla? Oppure vuoi proporre la TAB per chitarra del tuo Riff preferito? il testo? Questo è il forum giusto! Anche per suggerimenti sul ritmo di una canzone. Ricordati di usare la funzione cerca...

Ligabue - Quando canterai la tua canzone

Messaggiodi Danykos

Fonte: http://www.accordidelmomento.com

Codice: Seleziona tutto
LIGABUE - QUANDO CANTERAI LA TUA CANZONE

Do
Do Mi- Do Re
(Intro)
Do
Son stati giorni che han lasciato il segno
Mi-
e stare al mondo è già di più un impegno
La-
e adesso giri con in tasca un pugno
Fa                     Re-
nell’altra tasca il tuo rimario
Do
L’impatto con il mondo è sempre forte
Mi-
per chi vorrebbe solo farne parte
La-
e avere almeno due o tre cose certe
Fa                     Re-
e avere un Dio che si diverte
Sol
Ma scegli tu fra botte e rime
Re-
e scegli tu fra inizio e fine
Fa                                     
e scegli tu ma scegli tu per primo
Do                                    Re-
E quando canterai la tua canzone
                                          Mi-
la canterai con tutto il tuo volume
                                                  Fa     
lasciando qualcun altro a commentare
           Sol
che tu devi andare
Do
Son stati giorni di tempesta e vento
Mi-
ed era pronto solo chi era pronto
La-
ma adesso sai a cosa vai incontro
Fa                       Re-
chi non è morto è già più forte
Do
L’impatto con il mondo è sempre duro
Mi-
per chi lo vede come un posto scuro
La-
vorrei poterti essere utile davvero
Fa                    Re-
poterti dire che sei al sicuro
Sol

Ma scegli tu fra botte e rime
Re-
e scegli tu fra inizio e fine
Fa                                     
e scegli tu ma scegli tu per primo
Do                                    Re-
E quando canterai la tua canzone
                                        Mi-
e te ne fregherai di quanto piove
                                          Fa
la urlerai in faccia a chi non vuole
         Sol
e non sa sentire
Do                                      Re-
E quando canterai la tua canzone
                                       Mi-
la rabbia l’innocenza l’illusione
                                      Fa
ti toccherà cantare l’emozione
             Sol
che non sa nessuno
La Sol La (2) Sol
Re Do Re (2) Do
Mi- Re Mi- (2) Re
Fa Sol
(Solo)
Do                                     Re-
E quando canterai la tua canzone
                                                     Mi-
da quel momento in poi non puoi tornare
                                                     Fa
da quel momento in poi dovrai andare
          Sol
con le tue parole
Do                                      Re-
E quando canterai la tua canzone
                                           Mi-
la canterai con tutto il tuo volume
                                             Fa
che sia per tre minuti o per la vita
        Sol
avrà su il tuo nome
Do
(Fine)


Danykos
 
Messaggi: 29
Località: Nocera Inferiore


Re: Ligabue - Quando canterai la tua canzone

Messaggiodi Cancydj

ciao a tutti,
ma qualcuno sa dirmi come si suona l'intro?? :-DD


Cancydj
 
Messaggi: 9
Località: Bari

Re: Ligabue - Quando canterai la tua canzone

Messaggiodi mauz bitto

il video di mirkoliga è più esplicativo di qualsiasi altra parola :-OO



mauz bitto
 
Messaggi: 3531
Località: Bitonto (Ba)

Re: Ligabue - Quando canterai la tua canzone

Messaggiodi fedeturi

Intro:

e ----------------------I----------------------I
b ----------------------I----------------------I
g --5-5-5-5-5-5------I--5-5-5-5-5-5-5-5--I
d --5-5-3-3-5-5------I--5-5-3-3-5-5-3-3--I X2
a --3-3-3-3-3-3------I--3-3-3-3-3-3-3-3--I
E ---------------------I-----------------------I

e ----------------------I----------------------I----------------------------------I---------------------------------I
b --5-5-5-5-5-5-5-8--I--8-8-8-8-8-8-8-8--I--10-10-10-10-10-10-10-10--I--12-12-12-12-12-12-12-12--I
g --4-4-4-4-4-4-4-7--I--7-7-7-7-7-7-7-7--I--10-10-10-10-10-10-10-10--I--12-12-12-12-12-12-12-12--I
d --2-2-2-2-2-2-2-5--I--5-5-5-5-5-5-5-5--I---------------------------------I----------------------------------I
a ---------------------I-----------------------I---------------------------------I----------------------------------I
E ---------------------I-----------------------I---------------------------------I----------------------------------I


art.1001: il rock deve essere suonato al volume che serve
Avatar utente
fedeturi
 
Messaggi: 2

Re: Ligabue - Quando canterai la tua canzone

Messaggiodi Wilfrey

Ragazzi..Ma per farla "acustica" ?

http://www.youtube.com/watch?v=AJEzLOhO ... ure=fvwrel

L'intro si può prendere da qua , al minuto 07:19 si vede che la esegue e c'è un capotasto mobile al 2°..

Se qualcuno ha idee....proponete :)


Wilfrey
 
Messaggi: 9

Re: Ligabue - Quando canterai la tua canzone

Messaggiodi Ge_Ge

ki mi consiglia il ritmo? quello di la linea sottile l'ho trovato facilmente.... ma questo?


Ge_Ge
 
Messaggi: 128

Re: Ligabue - Quando canterai la tua canzone

Messaggiodi Lucabue

Ragazzi qualcuno ha le tab del "piccolo" assolo che fa Poggipollini in questa canzone?


Lucabue
 
Messaggi: 19

Re: Ligabue - Quando canterai la tua canzone

Messaggiodi Lucabue

UP UP UP! davvero nessuno conosce la tab di questo assolo?non ci credo :-(


Lucabue
 
Messaggi: 19

Re: Ligabue - Quando canterai la tua canzone

Messaggiodi io_sono_leggenda

Mi dispiace, ma mi costringi a richiamarti: hai già apetro un altro topic identico a questo per chiedere l'assolo e in questo stai uppando. /&%
Ecco comunque la TAB dell'assolo (minuto 2:35):



io_sono_leggenda
 
Messaggi: 980

Re: Ligabue - Quando canterai la tua canzone

Messaggiodi D3L7A

io sapevo che l'intro si faceva + o - così
|------------------------------------------------------------------------------------------------------------
|------------------------------------------------------------------------------------------------------------
|--5--5--5--5--5--5-----5--5--5--5--5--5--5--5--5--5--5--5--5--5------5--5--5--5--5--5--5--5------
|--5--5--3--3--5--5-----5--5--3--3--5--5--3--3--5--5--3--3--5--5------5--5--3--3--5--5--3--3------
|--3--3--3--3--3--3-----3--3--3--3--3--3--3--3--3--3--3--3--3--3------3--3--3--3--3--3--3--3------
|------------------------------------------------------------------------------------------------------------

|------------------------------------------------------------------------------------------------------------
|------------------------------------------------------------------------------------------------------------
|------------------------------------------------------------------------------------------------------------
|2--2--2--2--2--2--2--2--2--2--2--2--2--2--2--2--3--3--3--3--3--3--3--3--5--5--5--5--5--5--5--5-
|2--2--2--2--2--2--2--2--2--2--2--2--2--2--2--2--3--3--3--3--3--3--3--3--5--5--5--5--5--5--5--5-
|0--0--0--0--0--0--0--0--3--3--3--3--3--3--3--3--1--1--1--1--1--1--1--1--3--3--3--3--3--3--3--3-

Io faccio così l'intro... "...anche se non è un granché..." Liga


"...è bello che dove finiscono le mie dita, debba in qualche modo incominciare una chitarra." - Fabrizio De André
D3L7A
 
Messaggi: 15

Re: Ligabue - Quando canterai la tua canzone

Messaggiodi pascale90

Codice: Seleziona tutto
Solo

|-7-8-7----|--7-8-7-----|-7-8-7---|-7-8-7---|-7-8-7-----|-7-8-7---|-10------|
|-------5--|--------5-5-|-------5-|-------6-|-------6-6-|-------6-|----8-8--|
|----------|------------|---------|---------|-----------|---------|---------|
|----------|------------|---------|---------|-----------|---------|---------|
|----------|------------|---------|---------|-----------|---------|---------|
|----------|------------|---------|---------|-----------|---------|---------|

|-10-----10-|-11-10-8-7--|-8-------|-8-----8--|-10-----10-|-11-10---10-|
|----8-8----|------------|---6-6---|---6-6----|----8-8----|-------8----|
|-----------|------------|---------|----------|-----------|------------|
|-----------|------------|---------|----------|-----------|------------|
|-----------|------------|---------|----------|-----------|------------|
|-----------|------------|---------|----------|-----------|------------|


pascale90
 
Messaggi: 4

Re: Ligabue - Quando canterai la tua canzone

Messaggiodi Ge_Ge

vedete se cosi va bene... ci ho messo un po a capirla per bene
Codice: Seleziona tutto
E |--7--8--7--0--0--0--7--8--7--0--0--0--7--8--7--0----|
B |----------------------------------------------------|
G |----------------------------------------------------|
D |----------------------------------------------------|
A |----------------------------------------------------|
E |----------------------------------------------------|


--7--8--7-----------7--8--7-----------7--8--7-------|
-----------6--6--6-----------6--6--6-----------6----|
----------------------------------------------------|
----------------------------------------------------|
----------------------------------------------------|
----------------------------------------------------|


--10-------10-------10----12-12-10-10-8--8--7--7----|
-----8--8-----8--8-----8----------------------------|
----------------------------------------------------|
----------------------------------------------------|
----------------------------------------------------|
----------------------------------------------------|


--8--------8--------8-----------10-15-10-8--10-8----||
-----6--6-----6--6-----6--8--8----------------------||
----------------------------------------------------||
----------------------------------------------------||
----------------------------------------------------||
----------------------------------------------------||


Ge_Ge
 
Messaggi: 128



Torna a Accordi TAB Riff testo chords - Studiare canzoni


Chi c’è in linea

Visitano il forum: Nessuno e 13 ospiti