GLAMORDRAMA - Verdena

Hai trovato gli accordi chords di una canzone ad orecchio e vorresti suggerirla? Oppure vuoi proporre la TAB per chitarra del tuo Riff preferito? il testo? Questo è il forum giusto! Anche per suggerimenti sul ritmo di una canzone. Ricordati di usare la funzione cerca...

GLAMORDRAMA - Verdena

Messaggiodi smokedrama

salve, è il mio primo post anche se visito questo sito da quando è nato probabilmente.... visto che qui i geniacci chitarristici non mancano, pensavo di farmi dare una mano sull'intro di "glamordrama" dei verdena.... magari anche tutto il brano se è possibile. ringrazio in anticipo..


smokedrama
 
Messaggi: 4


Messaggiodi storm

Codice: Seleziona tutto
Intro

|-----2-0---|-------------|------------|-------------|
|--------0--|-----4-3-1p0-|-----0--0-1-|---3---------|
|---0-----0-|---0---------|---0---0-0--|-------0---0-|
|-----------|-------------|------------|------0---0--|
|-----------|-3-----------|------------|-----2---2---|
|-0---------|-------------|-3----------|-3-----------|

|-----2-0---|-------------|------------|-----3-------|
|--------0--|-----4-3-1p0-|-----0--0-1-|-----3-------|
|---0-----0-|---0---------|---0---0-0--|-----0-------|
|-----------|-------------|------------|-------------|
|-----------|-3-----------|------------|-------------|
|-0---------|-------------|-3----------|-3-----------|


Verse 1

|-----2-0---|-------------|------------|-------------|
|--------0--|-----4-3-1p0-|-----0--0-1-|---3---------|
|---0-----0-|---0---------|---0---0-0--|-------0---0-|
|-----------|-------------|------------|------0---0--|   (x3)
|-----------|-3-----------|------------|-----2---2---|
|-0---------|-------------|-3----------|-3-----------|
  A volte     lei cambia pelle             e lo confessa a
  me           continuamente,                lei esplora
  l’ordine   diffuso da me                ed ora è chiaro

|-----2-0---|-------------|------------|---3---3-3--3-|
|--------0--|-----4-3-1p0-|-----0--0-1-|---3---0-1--3-|
|---0-----0-|---0---------|---0---0-0--|---0---0-0--0-|
|-----------|-------------|------------|--------------|
|-----------|-3-----------|------------|--------------|
|-0---------|-------------|-3----------|-3------------|
  che          la carie più vi...    va    sei solo tu


Chorus

|---------------|---------------|-----------------|------------------------|
|-----4b-----3b-|-----3b-----3b-|-----4-------3---|-----3------------------|
|-5-5----4-4----|-3-3----4-4----|-------5-------3-|-------4----------------|
|-5-5----4-4----|-3-3----4-4----|---6-------5-----|---5------5s17-17-17-17-|   (x2)
|-3-3----2-2----|-1-1----2-2----|-----------------|----------5s17-17-17-17-|
|---------------|---------------|-4-------3-------|-3--------3s15-15-15-15-|
      Demone!         Demone!     Come    cadi      bene,   un bolide!
      Diamine!        Demone!     L’ansia divora,            woooh!


Verse 2 (the same as 1 but this lasts half)

A volte compaiono streghe
La psicoanalisi non funziona più come io vorrei


[Repeat chorus]


Solo

|--------------|-----------------|----------------------|-------------------------|
|------7-7-8-5~|------4-4-6-3-1p0|----------------------|-------------------------|
|-9-9----------|-5-5-------------|--------4-4br4-2-2brp0|--------4s9-9b-9br9-7-7br|
|-9-9----------|-5-5-------------|5-5-5-5---------------|5-5-5-5------------------|
|-7-7----------|-3-3-------------|5-5-5-5---------------|5-5-5-5------------------|
|--------------|-----------------|3-3-3-3---------------|3-3-3-3------------------|

|-----------------|----------------|----------------------|-------------------------|
|----7-7-8-10s15s7|----4-4-6-8s13s4|----------------------|-------------------------|
|9-9--------------|5-5-------------|--------4-4br4-2-2brp0|--------4s9-9b-9br9-7-7br|
|9-9--------------|5-5-------------|5-5-5-5---------------|5-5-5-5------------------|
|7-7--------------|3-3-------------|5-5-5-5---------------|5-5-5-5------------------|
|-----------------|----------------|3-3-3-3---------------|3-3-3-3------------------|


Verse 3 (the same as 2)

La serpe non cambia pelle e non è vero
che la carie più viva resti solo tu


Coda

|--------------|-------------|--------------|-------------|
|-------3-----3|-----3-----3-|-------3-----3|-----3-----3-|
|---0-----0----|-0-----0-----|---0-----0----|-0-----0-----|
|--------------|-------------|--------------|-------------|   (x4)
|-1---1-----1--|---1-----1---|-2---2-----2--|---2-----2---|
|--------------|-------------|--------------|-------------|

|--------------|-------------|--------------|-------------|--------------|-------------|
|-------4-----4|-----4-----4-|-------3-----3|-----3-----3-|-------3-----3|-----3-----3-|
|---0-----0----|-0-----0-----|---0-----0----|-0-----0-----|---0-----0----|-0-----0-----|
|--------------|-------------|--------------|-------------|--------------|-------------|   (x8)
|-3---3-----3--|---3-----3---|-1---1-----1--|---1-----1---|-2---2-----2--|---2-----2---|
|--------------|-------------|--------------|-------------|--------------|-------------|
                              x__________________________x2___________________________x

|--------------|-------------|--------------|-------------|
|-------3-----3|-----3-----3-|-------3-----3|-----3-----3-|
|---0-----0----|-0-----0-----|---0-----0----|-0-----0-----|
|--------------|-------------|--------------|-------------|   (x2)
|-1---1-----1--|---1-----1---|-2---2-----2--|---2-----2---|
|--------------|-------------|--------------|-------------|


eccoti accontentato :shock:


Meglio essere feriti da una verità che essere consolati da una menzogna....
storm
 
Messaggi: 420
Località: Sicily

Messaggiodi Guit'EmAll

Grande Storm, sei un mito! :)

Ciao Smokedrama, benvenuto..... :shock:


Guit'EmAll
 
Messaggi: 10366
Località: VI PIACEREBBE SAPERLO, EH??? :D

Messaggiodi Simrulez

bellissima canzone,adoro i verdena!


"una invenzione che porteresti indietro nel tempo?"
"la chitarra elettrica e l'amplificatore"
Simrulez
 
Messaggi: 337

Messaggiodi Dufresne

Simrulez ha scritto:bellissima canzone,adoro i verdena!


son bravi...c'hanno un sound tutto loro, ruvido ma dolce...sono agrodolce...ehehe

anche a me piacciono...


Dufresne
 
Messaggi: 6160

Messaggiodi smokedrama

storm, questo è in pratica la tablatura che trovi su verdena.it ? se è così, ci sono passato per caso un'ora dopo che ho scritto il post :D


grazie guit'emall (:


smokedrama
 
Messaggi: 4

Messaggiodi storm

non lo so....l'ho presa in giro....


Meglio essere feriti da una verità che essere consolati da una menzogna....
storm
 
Messaggi: 420
Località: Sicily

Messaggiodi wblur

E' possibile avere gli accordi?

grazie
wblur


wblur
 
Messaggi: 99

Messaggiodi wladdo75

Non si trovano...sorry :(


Consiglio chitarra elettrica + Amplificatore

Ho suonato 2 anni al conservatorio... ma non mi hanno mai aperto!!
wladdo75
 
Messaggi: 5830
Località: TORINO

Messaggiodi Mr. D

wladdo75 ha scritto:Non si trovano...sorry :(


Infatti...trovo solo le tab...


Mr. D
 
Messaggi: 1869
Località: MI

Messaggiodi wblur

MA un buon chitarrista dovrebbe riuscire a ricavarli dalla tab o mi sbaglio?

Qui leggendo i vari di commenti di ottimi chitarristi credo ce ne siano...;)

Marco


wblur
 
Messaggi: 99

Messaggiodi Mr. D

Se è così io non sono tra quelli allora :)


Mr. D
 
Messaggi: 1869
Località: MI



Torna a Accordi TAB Riff testo chords - Studiare canzoni


Chi c’è in linea

Visitano il forum: Nessuno e 19 ospiti