Born in the U.S.A.-- The Boss

Hai trovato gli accordi chords di una canzone ad orecchio e vorresti suggerirla? Oppure vuoi proporre la TAB per chitarra del tuo Riff preferito? il testo? Questo è il forum giusto! Anche per suggerimenti sul ritmo di una canzone. Ricordati di usare la funzione cerca...

Born in the U.S.A.-- The Boss

Messaggiodi CrAzYfAbIoL0

qualcuno potrebbe procurarmi le tab di Born in the U.S.A. del grande bruce springsteen???
non la trovo da nessuna parte....
p.s.--> se l'avatar di the boss è troppo ingombrante da fastidio ditelo... così ne metto uno meno appariscente :oops:


'Sei mai stato felice?' .. 'Si era un giovedì..'

Imparare a suonare i Power Chords con la chitarra
CrAzYfAbIoL0
 
Messaggi: 2046
Località: Sardegna / Emilia-Romagna


Messaggiodi lorenzo-giudici

ecco...scegli quella che preferisci... http://www.ultimate-guitar.com/search.p ... .A&w=songs :wink:


"Sono sepolto fino al collo dalle mie contraddizioni. Sono il parassita di me stesso. Non ho bisogno di qualcuno che mi ospiti. Semmai hai bisogno di qualcosa ti pego non esitare a chiedere prima a qualqun altro"
Kurt Cobain
lorenzo-giudici
 
Messaggi: 372

Messaggiodi CrAzYfAbIoL0

lorenzo-giudici ha scritto:ecco...scegli quella che preferisci... http://www.ultimate-guitar.com/search.p ... .A&w=songs :wink:


ehm... purtroppo ho un problemino con quel sito...ogni volta ke apro le canzoni mi si impalla il computer..se magari me la puoi copiare qui se tu riesci ad aprirla..seno magari mi date qualke altro sito..

grazie comunque :wink:


'Sei mai stato felice?' .. 'Si era un giovedì..'

Imparare a suonare i Power Chords con la chitarra
CrAzYfAbIoL0
 
Messaggi: 2046
Località: Sardegna / Emilia-Romagna

Messaggiodi rufus89

anche a me ogni volta che vado su quel sito si impalla explorer! boh


"In ogni conflitto le manovre regolari portano allo scontro, e quelle imprevedibili alla vittoria." (Sun Tzu - L'arte della guerra)

Accordi e tab Asaf Avidan
rufus89
 
Messaggi: 1002
Località: Latina

Messaggiodi sievel

accordi:
Born In The Usa Chords by Bruce Springsteen, http://www.Ultimate-Guitar.Com

SONG: Born in the USA
ARTIST: Bruce Springsteen
ALBUM: Born in the USA
TABBED BY: Kev Short


Start out with clean guitar then put a bit of distortion on when the song kicks in fully.
Standard tuning for this, as ever, the recording is the only way to get the timing.
For the faster parts of the song, strumming the chords instead of simply playing them and
letting them ring could sound better.


For the keyboard medley play this:


E|--------------------------------|4-------------------------------|
B|--------7---------------5---7---|----5-------7-------------------|
G|--------------------------------|--------------------------------|
D|--------------------------------|--------------------------------|
A|--------------------------------|--------------------------------|
E|7-------------------------------|--------------------------------|


E|--------------------------------|4-------------------------------|
B|--------7---------------5---7---|----7-------4-------------------|
G|--------------------------------|------------------------6---4---|
D|--------------------------------|--------------------------------|
A|--------------------------------|--------------------------------|
E|7-------------------------------|--------------------------------|



Rythym:
B
Born down in a dead man's town


The first kick I took was when I hit the ground
E
End up like a dog that's been beat too much


Till you spend half your life just covering up


B
Born in the U.S.A., I was born in the U.S.A.
E B
I was born in the U.S.A., born in the U.S.A. now


B
Got in a little hometown jam


So they put a rifle in my hand
E
Sent me off to a foreign land


To go and kill the yellow man


B
Born in the U.S.A., I was born in the U.S.A.
E B
I was born in the U.S.A., born in the U.S.A. now


B
Come back home to the refinery


Hiring man said "Son if it was up to me"
E
Went down to see my V.A. man
| B | B | B | B | E | E | E | E |
He said "Son, don't you understand"


B
I had a brother at Khe Sahn


Fighting off the Viet Cong
E
They're still there, he's all gone


B
He had a woman he loved in Saigon
| E | E | E | E |
I got a picture of him in her arms now


B
Down in the shadow of the penitentiary


Out by the gas fires of the refinery
E
I'm ten years burning down the road


Nowhere to run ain't got nowhere to go


B
Born in the U.S.A., I was born in the U.S.A.
E B
Born in the U.S.A., I'm a long gone Daddy in the U.S.A. now


Born in the U.S.A., Born in the U.S.A.
E
Born in the U.S.A., I'm a cool rocking Daddy in the U.S.A. now


| B | B | B | B | E | E | E | E |


B E
--2--0--
--4--0--
--4--1--
--4--2--
--2--2--
-----0--

Tabs, 2 versioni:
la prima
Born In The Usa Tab by Bruce Springsteen, http://www.Ultimate-Guitar.Com


Born In The USA
by Bruce Springsteen
tabbed by Dave Vai

Chords for verses and chorus'
B B B B B B
e|------------------------|------------------------|
B|-4-------4--------4-----|-4-------4--------4-----|
G|-4-------4--------4-----|-4-------4--------4-----|
D|-4-------4--------4-----|-4-------4--------4-----|
A|-2-------2--------2-----|-2-------2--------2-----|
E|------------------------|------------------------|

E E E E E E
e|------------------------|------------------------|
B|-0-------0--------0-----|-0-------0--------0-----|
G|-1-------1--------1-----|-1-------1--------1-----|
D|-2-------2--------2-----|-2-------2--------2-----|
A|-2-------2--------2-----|-2-------2--------2-----|
E|-0-------0--------0-----|-0-------0--------0-----|

Main riff arranged for guitar
e|-----2---0--2--4--0--2--|-----2---0--2--4--0--2--|
B|-----0---0--0--0--0--0--|-----0---0--0--0--0--0--|
G|------------------------|------------------------|
D|------------------------|------------------------|
A|-2----------------------|-2----------------------|
E|------------------------|------------------------|

e|-----2---0--2--4--0--2--|-----2---0--2--4--0--2--|
B|-----0---0--0--0--0--0--|-----0---0--0--0--0--0--|
G|------------------------|------------------------|
D|------------------------|------------------------|
A|------------------------|------------------------|
E|-0----------------------|------------------------|

la seconda
Tuning: Standard E

INTRO/VERSE
e|----------------------------------------|
B|----------------------------------------|
G|-6-6-6-6-6-6-6--6-11-----9-----7--------|
D|-6-6-6-6-6-6-6--6-11---9-9---7-7---6-6--|
A|-4-4-4-4-4-4-4--4--9---9-7---7-5---6-6--|
E|-----------------------7-----5-----4-4--|

CHORUS
e|-------------------------------------------------------------------|
B|-------------------------------------------------------------------|
G|--9-9-9-9--11-11-11-11-9-9-9-9-11-11-11-11--13-13--11-11--9-9--7-7-|
D|--9-9-9-9--11-11-11-11-9-9-9-9-11-11-11-11--13-13--11-11--9-9--7-7-|
A|--7-7-7-7---9--9--9--9-7-7-7-7--9--9--9--9--11-11---9--9--7-7--5-5-|
E|-------------------------------------------------------------------|

e|--------------------------------------|
B|--------------------------------------|
G|---11-11-9-----11-11-9-----11-11-9----|
D|---11-11-9-11--11-11-9-11--11-11-9-11-|
A|---9--9--7-11---9--9-7-11---9--9-7-11-|
E|------------9-----------9-----------9-|
^

Enjoy! 8)


sievel
 
Messaggi: 5

Messaggiodi CrAzYfAbIoL0

grazie!!! appena ho tempo la provo
:P :x


'Sei mai stato felice?' .. 'Si era un giovedì..'

Imparare a suonare i Power Chords con la chitarra
CrAzYfAbIoL0
 
Messaggi: 2046
Località: Sardegna / Emilia-Romagna

Messaggiodi Lawrence4843

Ciao.
Per tutte le canzoni di Springsteen basta che vai su Springsteen-chords.com e troverai tutte le canzoni.

Sapevi che Springsteen ha fatto anche una canzone acustica di Born in The usa?


Lawrence4843
 
Messaggi: 29
Località: Torino

Messaggiodi Guit'EmAll

Lawrence4843 ha scritto:Ciao.
Per tutte le canzoni di Springsteen basta che vai su Springsteen-chords.com e troverai tutte le canzoni.

Sapevi che Springsteen ha fatto anche una canzone acustica di Born in The usa?


SPETTACOLO!!! :o GRANDE LAWRENCE!! :wink:


Guit'EmAll
 
Messaggi: 10366
Località: VI PIACEREBBE SAPERLO, EH??? :D

Messaggiodi Lawrence4843

Grazie!!!!! Almeno su SPringsteen sono un po aggiornato!


Lawrence4843
 
Messaggi: 29
Località: Torino

Messaggiodi CrAzYfAbIoL0

Lawrence4843 ha scritto:
Sapevi che Springsteen ha fatto anche una canzone acustica di Born in The usa?

grazie del'informazione.. ora guardo se trovo la versione acustica e faccio quella :shock:


'Sei mai stato felice?' .. 'Si era un giovedì..'

Imparare a suonare i Power Chords con la chitarra
CrAzYfAbIoL0
 
Messaggi: 2046
Località: Sardegna / Emilia-Romagna

Messaggiodi Lawrence4843

http://www.springsteen-chords.com/TRACKS/bitusa.txt

il link e questo, gli accordi sono simili...... (e nell'album 18 tracks)
ciao


Lawrence4843
 
Messaggi: 29
Località: Torino

Messaggiodi CrAzYfAbIoL0

è tuta in fa#m e si.. facile.. ora la cerco per la ritmica.. non ho quell'album
grazie ancora :wink:


'Sei mai stato felice?' .. 'Si era un giovedì..'

Imparare a suonare i Power Chords con la chitarra
CrAzYfAbIoL0
 
Messaggi: 2046
Località: Sardegna / Emilia-Romagna

Messaggiodi Lawrence4843

di niente.
Se vuoi te la invio io la canzone.


Lawrence4843
 
Messaggi: 29
Località: Torino

Messaggiodi CrAzYfAbIoL0

Lawrence4843 ha scritto:di niente.
Se vuoi te la invio io la canzone.


l'ho già trovata.. grazie comunque.. veramente molto bella.. bene bene ora mi devo impegnare!!! :arrow:


'Sei mai stato felice?' .. 'Si era un giovedì..'

Imparare a suonare i Power Chords con la chitarra
CrAzYfAbIoL0
 
Messaggi: 2046
Località: Sardegna / Emilia-Romagna

Messaggiodi Lawrence4843

ok ciao


Lawrence4843
 
Messaggi: 29
Località: Torino

Prossimo


Torna a Accordi TAB Riff testo chords - Studiare canzoni


Chi c’è in linea

Visitano il forum: Nessuno e 39 ospiti