Sei qui: Home CDS - Tastiera e Scale - Accordi Power Chords

I "Power-Chords" sono accordi formati da Tonica e QUINTA GIUSTA (7 semitoni dopo la nota Fondamentale), e sono quindi accordi privi di Terza (sia Maggiore che Minore, per questo possono trovarsi anche nell'accezione di "omit3", dove "omit" significa "omesso" = "senza"). Sono accordi largamente usati nel Rock e sono alla base dell'Heavy-Metal.

Schema dei power-chords pił importanti, esempi traslabili lungo tutto il manico della chitarra:

------------------------------------------------------------------6---6---------------
-------------------------------------------------6---6-------6---6---6---------------
-----------------------------5---5----------5---5---5-------3---3--------------------
------------5---5-------5---5---5----------3---3--------------------------------------
---3---5---5---5-------3---3-----------------------------------------------------------
---3---3---3-----------------------------------------------------------------------------

Spiegazione schematica della composizione dei Power-Chords:

---------------------------------------------------------------------
---------------------------------------------------------------------
---------------------------------------------------------------------
---------------------------------5-(T)-----------5-(T)--------------
---3-(T)---------5-(V)---------5-(V)-----------5-(V)--------------
---3-(V)---------3-(T)---------3-(T)-------------------------------

T = Tonica = Nota Fondamentale (nelle TAB inglesi e americane si scrive con la lettera "R" di "Root").

V = Quinta Giusta di un accordo (= 7 semitoni dopo la Tonica).

Oltre a questi (e oltre ai power-chords che possono essere fatti con le corde a vuoto = accordi con "posizioni aperte"), che sono TUTTI ACCORDI "TRASLABILI" LUNGO LA TASTIERA DELLA CHITARRA, ci molti altri accordi largamente usati nel Rock. Gli accordi formati soltanto da due note (Tonica e Quinta Giusta) sono bellissimi, ma hanno lo svantaggio che, dal punto di vista armonico, sono un pochino limitati.

Per questo nel Rock si usano molto spesso anche accordi, SEMPRE TRASLABILI, ma formati da pił note.

Questi accordi sono accordi Maggiori, accordi Minori, accordi Minori di Settima, accordi di Settima Dominante, accordi di Settima Maggiore, accordi Semidiminuiti, accordi Diminuiti, accordi Sus9, accordi Sus9 con corde a vuoto (detti anche accordi con "posizioni aperte"), accordi Add11, accordi Primi Rivolti degli accordi Maggiori, accordi Secondi Rivolti degli accordi Maggiori, accordi Primi Rivolti degli accordi Minori, accordi Secondi Rivolti degli accordi Minori.

Hai dei dubbi? Chiedi sul forum!!!
Consigli per gli Acquisti

Cerca su CDS
Condividi CDS su FaceBook

Aiutaci a far conoscere CDS anche ai tuoi amici, chitarristi e non... diffondiamo la MUSICA!

Partner CDS

Acquari Low Cost
Consigli per investire

Contatti

Per conttatarmi puoi scrivermi qui: andreacatarsi77(chiocciola)gmail.com


© 2005-2014 Copyright Chitarradaspiaggia.com - Assolutamente vietata la riproduzione anche solo parziale dei contenuti del sito se non attraverso esplicito consenso dell'autore