Accordi note Tanti auguri a te - Happy Birthday Strumentale

Hai trovato gli accordi chords di una canzone ad orecchio e vorresti suggerirla? Oppure vuoi proporre la TAB per chitarra del tuo Riff preferito? il testo? Questo è il forum giusto! Anche per suggerimenti sul ritmo di una canzone. Ricordati di usare la funzione cerca...

Accordi note Tanti auguri a te - Happy Birthday Strumentale

Messaggiodi Clarita

Ciao a tutti, mia figlia compie gli anni, mi piacerebbe farle una sorpresina e suonarle "tanti auguri a te" con la chitarra...qualcuno mi puo' far avere gli accordi per favore? Grazie in anticipo e un caloroso saluto.


Clarita
 
Messaggi: 3


Accordi note Tanti auguri a te - Happy Birthday Strumentale

Messaggiodi Dufresne

mah...potresti farla così: do, sol, do, fa, do

oppure proprio strumentale facile




più completa




Dufresne
 
Messaggi: 6160

Accordi note Tanti auguri a te - Happy Birthday Strumentale

Messaggiodi Francus

Dufresne ha scritto:mah...potresti farla così: do, sol, do, fa, do

PROVA ANKE:

Codice: Seleziona tutto

           RE       LA7
Tanti auguri a te

                     RE
Tanti auguri a te

              SOL
Tanti auguri a XXXXXXX

          RE    LA7 RE
Tanti auguri a teeeeeeeeeeeee!! DA CAPO



NOTA:IL RITMO BASE E' SEMPRE

GGGGG......

PERO' SE RIESCI PUOI MODIFICARLO!!!!!!!!!
CIAO!!!!!!!!!!!!AUGURI!!!!!!!!!!!!!!!!


Vivi la vita giorno x giorno!!!!!!!!
Guitar is all my life!!!!
Hola amigos!!!!!!!!

IMPOSSIBLE IS NOTHING
Francus
 
Messaggi: 235
Località: Bologna

Messaggiodi wladdo75

Auguri a tua figlia...buon compleanno dalla banda dei
chitarristi!!!!!

ciaooooooooooooo


Consiglio chitarra elettrica + Amplificatore

Ho suonato 2 anni al conservatorio... ma non mi hanno mai aperto!!
wladdo75
 
Messaggi: 5830
Località: TORINO

Accordi note Tanti auguri a te - Happy Birthday Strumentale

Messaggiodi Clarita

Ringrazio tutti per l'aiuto e per gli auguri...ora non mi resta che studiarla per l'anno prossimo
Mammamia quanto e' dura sta chitarra...


Clarita
 
Messaggi: 3

Messaggiodi dav88

io riesco a farla così

SOL RE SOL DO RE SOL

GGG GGGGGG GGGGGG GGG GGG G


dav88
 
Messaggi: 460

Accordi note Tanti auguri a te - Happy Birthday Strumentale

Messaggiodi Il Giustiziere delle note

Codice: Seleziona tutto
HAPPY BIRTHDAY
( tutte le diteggiature degli accordi, la lavagna di Archimede per cambiare la tonalità, separare il testo dagli accordi e scegliere il layout di stampa)

[DO]    [DO6]  [DO]         [SOL]
|------------------------------------------|
|------------------------1------0----------|
|--0----0--2------0------0------0----------|
|--2----2--2------2-------------0----------|
|--3---------------------------------------|
|-------------------------------3----------|
   M    M  I      M      I      A
   A       M


  [SOL]  [SOLadd9][SOL]       [DO]
|------------------------------------------|
|------------------------3------1----------|
|--0----0--2------0------0------0----------|
|--0----0--0------0-------------2----------|
|-------------------------------3----------|
|------------------------------------------|
           M             m      I
                                M
                                A

  [DO]...                  [FAadd#11] [FA] 
|----------3------0------------------------|
|----------1------1------1------0----------|
|--0----0--0------0------0------2------2---|
|--2----2----------------2------3------3---|
|------------------------------------------|
|------------------------------(1)---------|
   M    M  m      I      I      M      M
           I             M      m      m
                                P

                [DO]        [SOL]   [DO]
|--------1----1--0-------------------------|
|--------1----1--1------1------3------1----|
|--------2----2--0------0------0------0----|
|------------------------------0------2----|
|----------------3--------------------3----|
|------------------------------3-----------|
         I    I  I      I      m      I
         I    I  A             A      M
         M    M                       A

|------------------------8-------
|----------------------8---------
|--------------------9-----------
|-----------------10-------------
|---------------10---------------
|-------------8------------------
              I A m  M I I

*****************
Ultima modifica di Il Giustiziere delle note su , modificato 2 volte in totale.


Il Giustiziere delle note
 
Messaggi: 605

Accordi note Tanti auguri a te - Happy Birthday Strumentale

Messaggiodi dolciste

ottimo lavoro


Nella vita non contano i respiri, ma i momenti che ti hanno tolto il respiro. (X Tritologol è di Carlin)

Idee articoli regalo per chitarristi - A forma di chitarra!
dolciste
 
Messaggi: 2023

Accordi note Tanti auguri a te - Happy Birthday Strumentale

Messaggiodi Il Giustiziere delle note

grazie


Il Giustiziere delle note
 
Messaggi: 605

Accordi note Tanti auguri a te - Happy Birthday Strumentale

Messaggiodi dolciste

Ora si che prima no!


Nella vita non contano i respiri, ma i momenti che ti hanno tolto il respiro. (X Tritologol è di Carlin)

Idee articoli regalo per chitarristi - A forma di chitarra!
dolciste
 
Messaggi: 2023

Re: Tanti auguri a te

Messaggiodi Iosonoio

...questa è per il chitarrista che cercava "Tanti Auguri"..eccola qua 8_)


Recensione MXR effetto delay

Eppure il vento soffia ancora...
Iosonoio
 
Messaggi: 2229
Località: Altissima Valtellina (SO)

Re: Tanti auguri a te

Messaggiodi MAIDEN FAN

Io avevo fatto un a tab che segue le parole se ti interessa eccola:
Codice: Seleziona tutto
                            Happy Birthday To You                               


Traccia 1
      E  E  Q    Q    Q       H        E  E  Q       Q    Q    H         
E||------------------------|----------------------|---------------------|
B||------------------------|----------------------|---------------------|
G||*-----------------------|----------------------|---------------------|
D||*------------------3----|--2-------------------|-------5----3--------|
A||---3--3--5----3---------|-----------3--3--5----|--3------------------|
E||------------------------|----------------------|---------------------|


  E  E  Q    Q    Q       Q    H        E  E     Q    Q    Q    Q       Q       
-----------------------|----------------------|----------------------|--------||
-----------------------|----------------------|----------------------|--------||
--------5----2---------|----------------3--3--|--2-------------------|-------*||
------------------3----|--2-------------------|-------3----5----3----|--L----*||
--3--3-----------------|-------5--------------|----------------------|--------||
-----------------------|----------------------|----------------------|--------||




Duration Legend
---------------
W - whole
H - half
Q - quarter
E - 8th
S - 16th
T - 32nd
X - 64th
. - note dotted
|-n-|  - n-tuplets


Tablature Legend
----------------
L - tied note
x - dead note
g - grace note
(n) - ghost note
> - accentuded note
NH - natural harmonic
AH - artificial harmonic
TH - tapped harmonic
SH - semi harmonic
PH - pitch harmonic
h - hammer on
p - pull off
b - bend
br - bendRelease
pb - preBend
pbr - preBendRelease
brb - bendReleaseBend
\n/ - tremolo bar dip
\n - tremolo bar dive
-/n - tremolo bar Release up
/n\ - tremolo bar inverted dip
/n - tremolo bar return
-\n - tremolo bar Release down
S - shift slide
s - legato slide
/ -  slide into from below or out of upwards
\ -  slide into from above or out of downwards
~ - vibrato
W - wide vibrato
tr - trill
TP - tremolo picking
T - tapping
S - slap
P - pop
< - fade in
^ - brush up
v - brush down


I'm goin' down to shoot my old lady...
MAIDEN FAN
 
Messaggi: 202
Località: OR

Re: Tanti auguri a te

Messaggiodi fratelbigio86

Ciao Chitarristi io Tanti auguri a te la faccio così con questo giro: re re re re la mi rip


fratelbigio86
 
Messaggi: 3

Tanti Auguri - Happy Birthday con la chitarra! :-)

Messaggiodi marko311

Non c'è modo più speciale che fare gli auguri di buon compleanno tramite la nostra musica e il nostro strumento musicale preferito!
Guardate il video e ditemi che cosa ne pensate :-) E se avete dubbi sul ritmo o volete le tab chiedete pure! :-)




"Un giorno anche la guerra si inchinerà al suono di una chitarra."
Jim Morrison
marko311
 
Messaggi: 7

Re: Tanti auguri a te

Messaggiodi Iosonoio

Marko ho unito qui il tuo post perchè la canzone è già esistente, mentre nella sezione Mi ci date un orecchio e un occhio non mettiamo Cover ma solo canzoni proprie ;)


Recensione MXR effetto delay

Eppure il vento soffia ancora...
Iosonoio
 
Messaggi: 2229
Località: Altissima Valtellina (SO)

Prossimo


Torna a Accordi TAB Riff testo chords - Studiare canzoni


Chi c’è in linea

Visitano il forum: Nessuno e 7 ospiti