Accordi tab Riff Intro Eric Clapton - Layla

Hai trovato gli accordi chords di una canzone ad orecchio e vorresti suggerirla? Oppure vuoi proporre la TAB per chitarra del tuo Riff preferito? il testo? Questo è il forum giusto! Anche per suggerimenti sul ritmo di una canzone. Ricordati di usare la funzione cerca...

Accordi tab Riff Intro Eric Clapton - Layla

Messaggiodi C.r.A.z.Y




Ragazzi cercavo gli accordi o le tablature (fa lo stesso..) di questa canzone di eric clapton...Mi date una mano ?


Un giorno anche le tenebre, il dolore, le guerre e la morte si inchineranno davanti al suono di una chitarra....
C.r.A.z.Y
 
Messaggi: 172
Località: sulle nuvole


Messaggiodi SoundOfDreams




ed ecco la tablatura più lunga del mondo
[code]
Intro
Q=117
4/4
Gtr I
~
H E S S S S S S W
|-----------------------|-------------------|
|-----------------------|-------------------|
|-------------7h10p7----|-7-----------------|
|--------7h10--------10-|-------------------|
|-----------------------|-------------------|
|-----------------------|-------------------|
|
| Gtr II
| H E S S S S S S E E E E +E E E E
|-----------------------|-------------------|
|-----------------------|-------------------|
|-------------0h=3p0----|-------------------|
|--------0h=3---------3-|-0-7S5-3-(3)-3---5-|
|-----------------------|---5S3-1-(1)-0---3-|
|-----------------------|---------------3---|


~
+H E S S S S S S W
|------------------------------|--------------------|
|------------------------------|--------------------|
|-(7)----------------7h10p7----|-7------------------|
|---------------7h10--------10-|--------------------|
|------------------------------|--------------------|
|------------------------------|--------------------|
|
| +E E E E +E S S S S S S E E E E +E E E E
|------------------------------|--------------------|
|------------------------------|--------------------|
|------------------------------|--------------------|
|-(5)-5---7-(7)------0h=3p0----|-0-7S5-3-(3)-3---5--|
|-(3)-0---5-(5)-0h=3---------3-|---5S3-1-(1)-0---3--|
|-------3----------------------|---------------3----|


~~~ ~~~~~~~
+H E S S S S S S Q. a +E +E Q E
|---------------------10h13p10----|-10------13b15==(13)-(13)-13---12-|
|---------------10h13----------13-|----------------------------------|
|-(7)-----------------------------|----------------------------------|
|---------------------------------|----------------------------------|
|---------------------------------|----------------------------------|
|---------------------------------|----------------------------------|
|
| +E E E E +E S S S S S S E E E E +E E E E
|---------------------------------|----------------------------------|
|---------------------------------|----------------------------------|
|---------------------------------|----------------------------------|
|-(5)-5---7-(7)--------0h=3p=0----|--0--7S5----------3---(3)--3----5-|
|-(3)-0---5-(5)--0h=3-----------3-|-----5S3----------1---(1)--0----3-|
|-------3-------------------------|-----------------------------3----|


~~
+E Q E +E S S S S S S
|-(12)------10-(10)-------10h13p10----|
|------13-----------10h13----------13-|
|-------------------------------------|
|-------------------------------------|
|-------------------------------------|
|-------------------------------------|
|
| +E E E E +E S S S S S S
|-------------------------------------|
|-------------------------------------|
|-------------------------------------|
|--(5)--5----7--(7)--------0h=3p=0----|
|--(3)--0----5--(5)--0h=3-----------3-|
|---------3---------------------------|


~~~~~~~
Q. a +E +E Q E
|-10------15b17==(15)-(15)-15---12-|
|----------------------------------|
|----------------------------------|
|----------------------------------|
|----------------------------------|
|----------------------------------|
|
| E E E E +E E E E
|----------------------------------|
|----------------------------------|
|----------------------------------|
|--0--7S5----------3---(3)--3----5-|
|-----5S3----------1---(1)--0----3-|
|-----------------------------3----|


~~ ~~ ~~
+E Q E +E S S S S S S Q E a +E +E Q E
|-(12)--------------------10h13p10----|-10---10-13b15==(13)-(13)-13---12-|
|------13---15-(15)-10h13----------13-|----------------------------------|
|-------------------------------------|----------------------------------|
|-------------------------------------|----------------------------------|
|-------------------------------------|----------------------------------|
|-------------------------------------|----------------------------------|
|
| +E E E E +E S S S S S S E E E E +E E E E
|-------------------------------------|----------------------------------|
|-------------------------------------|----------------------------------|
|-------------------------------------|----------------------------------|
|--(5)--5----7--(7)--------0h=3p=0----|--0-7S=5----------3---(3)--3----5-|
|--(3)--0----5--(5)--0h=3-----------3-|----5S=3----------1---(1)--0----3-|
|---------3---------------------------|-----------------------------3----|


+E Q E +E S S S S S S
|-(12)------10-(10)-------10h13p10----|
|------13-----------10h13----------13-|
|-------------------------------------|
|-------------------------------------|
|-------------------------------------|
|-------------------------------------|
|
| +E E E E +E S S S S S S
|-------------------------------------|
|-------------------------------------|
|-------------------------------------|
|--(5)--5----7--(7)--------0h=3p=0----|
|--(3)--0----5--(5)--0h=3-----------3-|
|---------3---------------------------|


2/4
~~~~~~~
Q. a +E +E Q E +E Q E
|-10------15b17==(15)-(15)-15---12-|-(12)--------------|
|----------------------------------|------13---13b15===|
|----------------------------------|-------------------|
|----------------------------------|-------------------|
|----------------------------------|-------------------|
|----------------------------------|-------------------|
|
| E E E E +E E E E +E E E E
|----------------------------------|-------------------|
|----------------------------------|-------------------|
|----------------------------------|-------------------|
|--0--7S5----------3---(3)--3----5-|--(5)--5-----------|
|-----5S3----------1---(1)--0----3-|--(3)--0---(0)-----|
|-----------------------------3----|---------3---------|


Verse
4/4
~~~~
+H. a +E S S a +H. S +S S S
|----------------------------------|------------------------------------------|
|-(13)-------------12b14-(12)r12p9-|-10b12==(10)--------------10b12-(10)r10p9-|
|----------------------------------|------------------------------------------|
|----------------------------------|------------------------------------------|
|----------------------------------|------------------------------------------|
|----------------------------------|------------------------------------------|
|
| e E e E e S S e S S e E E. S e S S e S S
|----------------------------------|------------------------------------------|
|---5----5---5---------------------|------------------------------------------|
|---4----4---4-------------------4-|---------------4--4-4------4------------4-|
|---6----6---6-------------6-----4-|---------------4--4-4---4--4------------4-|
|---4----4---4-4-4---------4-----6-|-------------6-6--6-6-6----6----------6---|
|----------------------------------|----------4--4----------------------------|


~
a +Q S +S S S +E E E. S
|--------------------------------------------------|
|--------------------------------------------------|
|-11b13-(11)---11b13-(11)r11p9-(9)---9---11p====9--|
|--------------------------------------------------|
|--------------------------------------------------|
|--------------------------------------------------|
|
| e E e E S S S S S S e
|--------------------------------------------------|
|---------5-----5--------------------5-x------7----|
|---------4-----4--------------------3-x------5----|
|---------6-----6------------------5--------7------|
|------------4-------------4----3---------5--------|
|--------------------------------------------------|


a +Q e S S E E E S S E. S S S S S S s E E E
|---------------12------------------------|---------------------------------------|
|-----------------------------------------|---------------------------------------|
|-11b13==(11)------13r11-9---11---9-------|-9----9-9h11------9h11------9---11b13==|
|-----------------------------------9h=11-|-------------11-x------11--------------|
|-----------------------------------------|---------------------------------------|
|-----------------------------------------|---------------------------------------|
|
| E E Q S E S E E E E S S S S S S S S S S E
|-----------------------------------------|--------4p=2---------------------------|
|----------------9-------9-9----9-9-------|--------2-----2-x---------4------------|
|----------------7-------7-7----7-7-------|----2-----------x---------4------------|
|-------------9--9-------9-9----9-9-9\----|-4----------------------4---6p4--------|
|----------7--7---------------------------|------------------4S=6-----------6-----|
|-----------------------------------------|---------------------------------------|


~~~
+E E S S S S S E. +E. S
|------------------------------------------|
|------12----------------------------------|
|-(11)------13r11p9-9----------------------|
|---------------------9h11----(11)----11---|
|------------------------------------------|
|------------------------------------------|
|
| E S S S S S S E. S S S E
|------------2p=0--------------------------|
|-------0-0-------0-x----------------------|
|-------1-1-------1-x----------------------|
|-------2-2-----------2-----2---4p2--------|
|---------------------0-------------4------|
|---0--------------------------------------|


|---3---|
S E S e S S a +Q +S S S E
|-----------------------------------------------------|
|-----------------------------------------------------|
|--------9-11------9-11b13==(11)-----(11)r11p==9------|
|-9h11----------11-------------------------------11---|
|-----------------------------------------------------|
|-----------------------------------------------------|
|
| E E S s E E S S S S S S
|-----------2-2---------------------------------------|
|-----------2-2---------------------------------------|
|-----------2-2------------------------4-----4------x-|
|------2---------------------------4---4-----4------x-|
|-----------------------------2--2-----2----------2---|
|-2---------------------------------------------------|


~
H E S S S S S S
|------------------10h13p10-----|
|------------10h13----------13--|
|-9-----------------------------|
|-------------------------------|
|-------------------------------|
|-------------------------------|
|
| E S S Q E S S S S S S
|-------------------------------|
|-------------------------------|
|-------------------------------|
|-2-x-2-2-----------0h=3p=0-----|
|-2-x-2-2--0--0h=3-----------3--|
|-0-----0-----------------------|


Chorus
~~~ ~~
Q. a +E +E Q E
|-10------13b15==(13)-(13)-13---12-|
|----------------------------------|
|----------------------------------|
|----------------------------------|
|----------------------------------|
|----------------------------------|
|
| E E E E +E E E E
|----------------------------------|
|----------------------------------|
|----------------------------------|
|--0--7S5----------3---(3)--3----5-|
|-----5S3----------1---(1)--0----3-|
|-----------------------------3----|


~~ ~~~ ~~~~~~~
+E Q E +E S S S S S S Q. a +E +E Q E
|-(12)------10-(10)-------10h13p10----|-10------15b17==(15)-(15)-15---12-|
|------13-----------10h13----------13-|----------------------------------|
|-------------------------------------|----------------------------------|
|-------------------------------------|----------------------------------|
|-------------------------------------|----------------------------------|
|-------------------------------------|----------------------------------|
|
| +E E E E +E S S S S S S E E E E +E E E E
|-------------------------------------|----------------------------------|
|-------------------------------------|----------------------------------|
|-------------------------------------|----------------------------------|
|--(5)--5----7--(7)--------0h=3p=0----|--0--7S5----------3---(3)--3----5-|
|--(3)--0----5--(5)--0h=3-----------3-|-----5S3----------1---(1)--0----3-|
|---------3---------------------------|-----------------------------3----|


~~
+E Q E +E S S S S S S
|-(12)--------------------10h13p10----|
|------13---15-(15)-10h13----------13-|
|-------------------------------------|
|-------------------------------------|
|-------------------------------------|
|-------------------------------------|
|
| +E E E E +E S S S S S S
|-------------------------------------|
|-------------------------------------|
|-------------------------------------|
|--(5)--5----7--(7)--------0h=3p=0----|
|--(3)--0----5--(5)--0h=3-----------3-|
|---------3---------------------------|


~~ ~~
Q E a +E +E Q E +E Q E +E S S S S S S
|-10---10-13-(13)b15==(13)-13---12-|-(12)------10-(10)-------10h13p10----|
|----------------------------------|------13-----------10h13----------13-|
|----------------------------------|-------------------------------------|
|----------------------------------|-------------------------------------|
|----------------------------------|-------------------------------------|
|----------------------------------|-------------------------------------|
|
| E E E E +E E E E +E E E E +E S S S S S S
|----------------------------------|-------------------------------------|
|----------------------------------|-------------------------------------|
|----------------------------------|-------------------------------------|
|--0-7S=5------3-------(3)--3----5-|--(5)--5----7--(7)--------0h=3p=0----|
|----5S=3------1-------(1)--0----3-|--(3)--0----5--(5)--0h=3-----------3-|
|-----------------------------3----|---------3---------------------------|


2/4
~~~ ~~
Q. a +E +E Q E +E Q E
|-10------15b17==(15)-(15)-15---12-|-(12)-------------||
|----------------------------------|------13---12b14==||
|----------------------------------|------------------||
|----------------------------------|------------------||
|----------------------------------|------------------||
|----------------------------------|------------------||
|
| E E E E +E E E E +E E E E
|----------------------------------|------------------||
|----------------------------------|------------------||
|----------------------------------|------------------||
|--0--7S5----------3---(3)--3----5-|--(5)--5----6-----||
|-----5S3----------1---(1)--0----3-|--(3)--0----4-----||
|-----------------------------3----|---------3--------||


Verse 2
4/4
+H. a +S E S
|------------------------------------|
|-(12)-------------12b14-(12)r12p==9-|
|------------------------------------|
|------------------------------------|
|------------------------------------|
|------------------------------------|
|
| +E S S q E. S E S S
|------------------------------------|
|--------5-5---------------5---------|
|------4-4-4-----4---------4-----4-4-|
|--(6)-6---6--6--6---------6-----6---|
|--(4)--------4----------------------|
|------------------------------------|


~~~~ ~~~~~~~~~~
a +H. S +S S S a +Q +S S E Q E. S
|-------------------------------------------|----------------------------------------|
|-10b12==(10)---------------10b12-(10)r10-9-|----------------------------------------|
|-------------------------------------------|-11b13==(11)---(11)r11p9-9-----11p====9-|
|-------------------------------------------|----------------------------------------|
|-------------------------------------------|----------------------------------------|
|-------------------------------------------|----------------------------------------|
|
| E. S S S S S e E e S S E E S S e S S e S S e
|-----------------------4----4--------------|------------------------------------5---|
|-----------------------4----4--------------|-------------5---------5-----5------7---|
|---------------4-4-4-4-4----4------------4-|-------------4---------4-----3------5---|
|-------------4-4-4-4-4-----------------4---|----------6------4h==6-----5------7-----|
|----------6--6-----------6-----------------|----------4--------------3------5-------|
|----------4--------------------------------|----------------------------------------|


a +E S S S S E S S S S E S S
|--------------------12---------------------------------|
|---------------(12)------------------------------------|
|-11b13==(11)-----------13r11-9---11p9----9-9------(9)--|
|--------------------------------------11-----11--------|
|-------------------------------------------------------|
|-------------------------------------------------------|
|
| S E S E. S S S S S E +E
|-------------------------------------------------------|
|----------9----------9--9------9--9------9-9-----------|
|----------7--7-------7--7------7--7-7--7-7-7-----------|
|-------------9----------9-----------9--9---9-(9)\------|
|-------------------------------------------------------|
|-------------------------------------------------------|


|--3--|
S S S S E E S S S S E S S S S S S E S S +S S S e E. S
|------------------------------------|---------------------------------------------|
|------------------------------------|---------------------------------------------|
|------x-9-9-----------x-9-9-------x-|------x-9-9---11-11b13==(11)r11p9-11-9-------|
|-9h11---------11-9h11---------11----|-9h11--------------------------------------x-|
|------------------------------------|---------------------------------------------|
|------------------------------------|---------------------------------------------|
|
| E. S S s E S S E S S E E S S S E S E E S S E
|----------2-2-----------------------|----------0-0--------------------------------|
|--------2-2-2-----------------------|------0-0-0-0-----x--------------------------|
|--------2-------------4-------------|------1-1---------x--------------------------|
|-4--------------------4---6p4-------|------2-------------------2--------2-4p2-----|
|-----------------4h=6----------6\---|--------------------------0--------------4---|
|------------------------------------|-0-------------------------------------------|


S S E S +E. +S E S a +E. S
|-------------------------------------------------------|
|-------------------------------------------------------|
|------9---11b13==(11)-----(11)r11p==9-11b13==(11)---11-|
|-9h11--------------------------------------------------|
|-------------------------------------------------------|
|-------------------------------------------------------|
|
| E S S S S S S E S S E E
|-----------4p======2-----------------------------------|
|--------2-------------2-x------------------------------|
|------2-2-------------2-x-----------4----------4-------|
|------2---------------------------4-4----------4--4----|
|----------------------------2--------------------------|
|-2-----------------------------------------------------|


Chorus 2
~ ~~~ ~~~~~~~
H E S S S S S S Q. a +E +E Q E
|------------------10h13p10----||-10------13b15==(13)-(13)-13---12-|
|------------10h13----------13-||----------------------------------|
|-9----------------------------||----------------------------------|
|------------------------------||----------------------------------|
|------------------------------||----------------------------------|
|------------------------------||----------------------------------|
|
| Q E S S E S S S S S S E E E E +E E E E
|------------------------------||----------------------------------|
|------------------------------||----------------------------------|
|----1-x-x---------------------||----------------------------------|
|-2--2-x-x----------0h=3p=0----||--0--7S5----------3---(3)--3----5-|
|-2--2-----0--0h=3-----------3-||-----5S3----------1---(1)--0----3-|
|-0----------------------------||-----------------------------3----|


~~
+E Q E +E S S S S S S
|-(12)------10-(10)-------10h13p10-----|
|------13-----------10h13----------13--|
|--------------------------------------|
|--------------------------------------|
|--------------------------------------|
|--------------------------------------|
|
| +E E E E +E S S S S S S
|--------------------------------------|
|--------------------------------------|
|--------------------------------------|
|--(5)--5----7--(7)--------0h=3p=0-----|
|--(3)--0----5--(5)--0h=3-----------3--|
|---------3----------------------------|


~~~ ~~~~~~~
Q. a +E +E Q E
|-10------15b17==(15)-(15)-15---12-|
|----------------------------------|
|----------------------------------|
|----------------------------------|
|----------------------------------|
|----------------------------------|
|
| E E E E +E E E E
|----------------------------------|
|----------------------------------|
|----------------------------------|
|--0--7S5----------3---(3)--3----5-|
|-----5S3----------1---(1)--0----3-|
|-----------------------------3----|


~~ ~~ ~~
+E Q E +E S S S S S S Q E a +E +E Q E
|-(12)--------------------10h13p10----|-10---10-13b15==(13)-(13)-13---12-|
|------13---15-(15)-10h13----------13-|----------------------------------|
|-------------------------------------|----------------------------------|
|-------------------------------------|----------------------------------|
|-------------------------------------|----------------------------------|
|-------------------------------------|----------------------------------|
|
| +E E E E +E S S S S S S E E E E +E E E E
|-------------------------------------|----------------------------------|
|-------------------------------------|----------------------------------|
|-------------------------------------|----------------------------------|
|--(5)--5----7--(7)--------0h=3p=0----|--0-7S=5----------3---(3)--3----5-|
|--(3)--0----5--(5)--0h=3-----------3-|----5S=3----------1---(1)--0----3-|
|---------3---------------------------|-----------------------------3----|


+E Q E +E S S S S S S
|-(12)------10-(10)-------10h13p10----|
|------13-----------10h13----------13-|
|-------------------------------------|
|-------------------------------------|
|-------------------------------------|
|-------------------------------------|
|
| +E E E E +E S S S S S S
|-------------------------------------|
|-------------------------------------|
|-------------------------------------|
|--(5)--5----7--(7)--------0h=3p=0----|
|--(3)--0----5--(5)--0h=3-----------3-|
|---------3---------------------------|


2/4
~~~ ~~~~~~~
Q. a +E +E Q E +E Q E
|-10------15b17==(15)-(15)-15---12-||-(12)--------------|
|----------------------------------||------13---12b14===|
|----------------------------------||-------------------|
|----------------------------------||-------------------|
|----------------------------------||-------------------|
|----------------------------------||-------------------|
|
| E E E E +E E E E E E E E
|----------------------------------||-------------------|
|----------------------------------||-------------------|
|----------------------------------||-------------------|
|--0--7S5----------3---(3)--3----5-||---5---5----6------|
|-----5S3----------1---(1)--0----3-||---3---0----4------|
|-----------------------------3----||---------3---------|


Verse 3
4/4
+H. a +E S S a +H. S +S S S
|---------------------------------------|--------------------------------------------|
|-(12)-----------------12b14==(12)r12-9-|-10b12==(10)----------------10b12-(10)r10p9-|
|---------------------------------------|--------------------------------------------|
|---------------------------------------|--------------------------------------------|
|---------------------------------------|--------------------------------------------|
|---------------------------------------|--------------------------------------------|
|
| +e S S E S S S E S E S S E S S E. S S E S S S S S
|------------------4--------------------|------------------------4-----------4-------|
|--------5-x-----5-5------------5-------|-----------------4----4-4-4--4------4-----4-|
|------4-4-x---4-4-4------------4-----4-|-----------------4----4-4-4--4----------4-4-|
|--(6)-6-------6-----6--------------6---|-------------4-4-4--4-------------------4---|
|--(4)-------4--------------------------|----------6--6------------------------------|
|---------------------------------------|----------4---------------------------------|


~ ~~~
|---3---|
a +Q +E E E +Q E. S
|----------------------------------------------------|
|----------------------------------------------------|
|-11b13==(11)-----(11)r11p==9---(9)-------11p====9---|
|----------------------------------------------------|
|----------------------------------------------------|
|----------------------------------------------------|
|
| E S S E S S S S S S S S S S
|----------------------------------------------------|
|-------------------5---------x-------5-5------7-x---|
|---------------4---4---------x-------3-3------5-x---|
|-------------6-----6-----6---------5--------7-------|
|----------4---------------------3---------5---------|
|----------------------------------------------------|


a +E e a +E e S S E E S S
|-------------12-------------12-----------------------|
|-----------------------------------------------------|
|-11b13==(11)----11b13==(11)------11p9------9-------x-|
|--------------------------------------11-------11----|
|-----------------------------------------------------|
|-----------------------------------------------------|
|
| E E E S S S S S S S S E
|-----------------------------------------------------|
|-------------------------------------------9-9-------|
|-------------------------------7--7-7----7-7-7-------|
|-------------------------9---9-9--9-9--9-9-9-9--9\---|
|----------7---7----------7---7---------7-------------|
|-----------------------------------------------------|


S S S S E S S S S S S E S S
|-------------------------------------|
|-------------------------------------|
|------x-9-9------x------x-9-9------9-|
|-9h11---------11---9h11---------11---|
|-------------------------------------|
|-------------------------------------|
|
| E S S S S S S E S S S S e
|----------4p2------------------------|
|------2-2-2--------------------------|
|------2-2------2-x------4-4------4---|
|------2--------2-x-4----4-4------4---|
|-------------------2--------4S6------|
|-2-----------------------------------|


a +E s S a +S S E S S S S E S S
|----------------------------------------------------|
|----------------------------------------------------|
|-11b13-(11)r11---11b13-(11)r11-9-11p9----x-9------9-|
|--------------------------------------11-------11---|
|----------------------------------------------------|
|----------------------------------------------------|
|
| E S S S S E E E S S E
|----------------------------------------------------|
|-------------------------0---0----------------------|
|-------------------------1---1----------------------|
|-------------2-2---------2---2-2--2----2---4p2------|
|-------------2-2------------------0-------------4---|
|---------0------------------------------------------|


|-3--|
a +E E S S E S S S S S a +e E
|-------------------------------------------------------|
|-------------12----------------------------------------|
|-11b13==(11)----13r11-9-9h11p9----9-11b13==(11)---9----|
|-------------------------------11----------------------|
|-------------------------------------------------------|
|-------------------------------------------------------|
|
| E E S S E E S S S S S S
|-------------------------------------------------------|
|-----------------2--2-2-------------------------4-4----|
|-----------------2--2-2-----------4----------4--4-4-x--|
|--------------4--4--4-4---------4-4----------4--4-4-x--|
|------------------------2-------2----------------------|
|----------2--------------------------------------------|


Chorus 3
~ ~~~~~~~
H E S S S S S S Q. a +E +E Q E
|---------------------10h13p10----||--10------13b15==(13)-(13)-13---12-|
|---------------10h13----------13-||o----------------------------------|
|-9-------------------------------||-----------------------------------|
|---------------------------------||-----------------------------------|
|---------------------------------||o----------------------------------|
|---------------------------------||-----------------------------------|
|
| E S S E S S E S S S S S S E E E E +E E E E
|---------------------------------||-----------------------------------|
|---------------------------------||o----------------------------------|
|-------------2-------------------||-----------------------------------|
|-2-x-x-2-x-x-2--------0h=3p=0----||---0--7S5----------3---(3)--3----5-|
|-2-x-x-2-x-x-0--0h=3-----------3-||o-----5S3----------1---(1)--0----3-|
|-0-----0-------------------------||------------------------------3----|


~~
+E Q E +E S S S S S S
|-(12)------10-(10)-------10h13p10----|
|------13-----------10h13----------13-|
|-------------------------------------|
|-------------------------------------|
|-------------------------------------|
|-------------------------------------|
|
| +E E E E +E S S S S S S
|-------------------------------------|
|-------------------------------------|
|-------------------------------------|
|--(5)--5----7--(7)--------0h=3p=0----|
|--(3)--0----5--(5)--0h=3-----------3-|
|---------3---------------------------|


~~~ ~~~~~~~ ~~
Q. a +E +E Q E +E Q E +E S S S S S S
|-10------15b17==(15)-(15)-15---12-|-(12)--------------------10h13p10-----||
|----------------------------------|------13---15-(15)-10h13----------13-o||
|----------------------------------|--------------------------------------||
|----------------------------------|--------------------------------------||
|----------------------------------|-------------------------------------o||
|----------------------------------|--------------------------------------||
|
| ~~~~
| E E E E +E E E E +E E E E +E S S S S S S
|----------------------------------|--------------------------------------||
|----------------------------------|-------------------------------------o||
|----------------------------------|--------------------------------------||
|--0--7S5----------3---(3)--3----5-|--(5)--5----7--(7)--------0h=3p=0-----||
|-----5S3----------1---(1)--0----3-|--(3)--0----5--(5)--0h=3-----------3-o||
|-----------------------------3----|---------3----------------------------||


Chorus 4
~~~ ~~~~~~~
Q. a +E +E Q E
|-||--10------13b15==(13)-(13)-13---12--|
|-||o-----------------------------------|
|-||------------------------------------|
|-||------------------------------------|
|-||o-----------------------------------|
|-||------------------------------------|
|
| ~~~~
| E E E E +E E E E
|-||------------------------------------|
|-||o-----------------------------------|
|-||------------------------------------|
|-||---0--7S5----------3---(3)--3----5--|
|-||o-----5S3----------1---(1)--0----3--|
|-||------------------------------3-----|


~~~~ ~~ ~~~ ~~~~~~~
+E Q E +E S S S S S S Q. a +E +E Q E
|-(12)------10-(10)-------10h13p10----|-10------15b17==(15)-(15)-15---12-|
|------13-----------10h13----------13-|----------------------------------|
|-------------------------------------|----------------------------------|
|-------------------------------------|----------------------------------|
|-------------------------------------|----------------------------------|
|-------------------------------------|----------------------------------|
|
| +E E E E +E S S S S S S E E E E +E E E E
|-------------------------------------|----------------------------------|
|-------------------------------------|----------------------------------|
|-------------------------------------|----------------------------------|
|--(5)--5----7--(7)--------0h=3p=0----|--0--7S5----------3---(3)--3----5-|
|--(3)--0----5--(5)--0h=3-----------3-|-----5S3----------1---(1)--0----3-|
|---------3---------------------------|-----------------------------3----|


1.
~~
+E Q E +E S S S S S S
|-(12)--------------------10h13p10-----||
|------13---15-(15)-10h13----------13-o||
|--------------------------------------||
|--------------------------------------||
|-------------------------------------o||
|--------------------------------------||
|
| +E E E E +E S S S S S S
|--------------------------------------||
|-------------------------------------o||
|--------------------------------------||
|--(5)--5----7--(7)--------0h=3p=0-----||
|--(3)--0----5--(5)--0h=3-----------3-o||
|---------3----------------------------||


2.
~~~~
E Q E +Q E. S
|-(12)----------------------------||
|------13---15-(15)-----------/22-||
|---------------------------------||
|---------------------------------||
|---------------------------------||
|---------------------------------||
|
| E E E E +E S S S S S S
|---------------------------------||
|---------------------------------||
|---------------------------------||
|---5---5----7--(7)-----0h3p0-----||
|--(3)--0----5--(5)-0h3---------3-||
|---------3-----------------------||


Outro
~~~~~~~
S S e S S E +S E. +E E Q E E +Q +E S S
|-22----22-22----22-(22)S24----(24)S25-|-24----20S22-(22)-----(22)--20----|
|----22-------22-----------------------|-------------------------------22-|
|--------------------------------------|----------------------------------|
|--------------------------------------|----------------------------------|
|--------------------------------------|----------------------------------|
|--------------------------------------|----------------------------------|
|
| E E E E +E E E E +E E E E +E S S S S S S
|--------------------------------------|----------------------------------|
|--------------------------------------|----------------------------------|
|--------------------------------------|----------------------------------|
|--0-----7S=5-----3--(3)-----3-------5-|-(5)-5-----7--(7)-------0h3p=0----|
|--------5S=3-----1--(1)-----0-------3-|-(3)-0-----5--(5)-0h3-----------3-|
|--------------------------------3-----|--------3-------------------------|


a Q S S E +Q E E
|-20S22-------------------------|
|---------22S20S22-(22)---22S20-|
|-------------------------------|
|-------------------------------|
|-------------------------------|
|-------------------------------|
|
| E E E E +E E E E
|-------------------------------|
|-------------------------------|
|-------------------------------|
|-----0-7S=5-----3--(3)-3-----5-|
|-------5S=3-----1--(1)-0-----3-|
|--------------------------3----|


~~
E S S +E E +Q Q Q S E. Q E E
|----------------------------13S======|=22---22S20S==22----22S20S=|
|-20--20S22-(22)S15-(15)--------------|---------------------------|
|-------------------------------------|---------------------------|
|-------------------------------------|---------------------------|
|-------------------------------------|---------------------------|
|-------------------------------------|---------------------------|
|
| +E E E E +E S S S S S S E E E E +E E E E
|-------------------------------------|---------------------------|
|-------------------------------------|---------------------------|
|-------------------------------------|---------------------------|
|-(5)--5----------7--(7)------0h3p0---|--0-7S=5----3-(3)-3-----5--|
|-(3)--0----------5--(5)-0h3--------3-|----5S=3----1-(1)-0-----3--|
|-------------3-----------------------|---------------------3-----|


~~~
|----3----|
Q E E Q E E Q Q Q E E E E
|-24----24S22-22------22S==29---|-29---29---29---29S=27-29S27-|
|-------------------------------|-----------------------------|
|-------------------------------|-----------------------------|
|-------------------------------|-----------------------------|
|-------------------------------|-----------------------------|
|-------------------------------|-----------------------------|
|
| +E E E E +E S S S S S S E E E E +E E E E
|-------------------------------|-----------------------------|
|-------------------------------|-----------------------------|
|-------------------------------|-----------------------------|
|-(5)-5-----7-(7)------0h3p=0---|--0-7S===5----3-(3)--3-----5-|
|-(3)-0-----5-(5)-0h3---------3-|----5S===3----1-(1)--0-----3-|
|--------3----------------------|------------------------3----|


+Q E E Q Q
|-(27)---28S29-29\----------------|
|----------------------/20--------|
|---------------------------------|
|---------------------------------|
|---------------------------------|
|---------------------------------|
|
| +E E E E +E S S S S S S
|---------------------------------|
|---------------------------------|
|---------------------------------|
|--(5)-5-----7-(7)-------0h3p0----|
|--(3)-0-----5-(5)-0h3---------3--|
|---------3-----------------------|


~~
Q S S E S E. +E S S
|-20------------20S=22----(22)S20----|
|------20S18S20-------------------22-|
|------------------------------------|
|------------------------------------|
|------------------------------------|
|------------------------------------|
|
| E E E E +E E E E
|------------------------------------|
|------------------------------------|
|------------------------------------|
|--0-7S=5-----3-(3)-----3-------5----|
|----5S=3-----1-(1)-----0-------3----|
|---------------------------3--------|


|----3----| |----3-----|
a Q E E Q E E E a H a Q Q Q
|-22S24S===25S22-22------22S==20--------|-20S22-------22S24----24---24\---|
|----------------------------------22---|---------------------------------|
|---------------------------------------|---------------------------------|
|---------------------------------------|---------------------------------|
|---------------------------------------|---------------------------------|
|---------------------------------------|---------------------------------|
|
| +E E E E +E S S S S S S E E E E +E E E E
|---------------------------------------|---------------------------------|
|---------------------------------------|---------------------------------|
|---------------------------------------|---------------------------------|
|----(5)-5-----7-(7)------0h3p===0------|-----0-7S5-3----(3)-3----------5-|
|----(3)-0-----5-(5)-0h3--------------3-|-------5S3-1----(1)-0----------3-|
|-----------3---------------------------|-------------------------3-------|


~~~
|---3----|
Q E E a Q +E S S a Q +E a S S a Q +E E E
|-20----20S22-20S22------(22)S==20----|-20S22---(22)--------------------------------|
|----------------------------------22-|--------------22S20----20S22----(22)S20------|
|-------------------------------------|--------------------22--------------------22-|
|-------------------------------------|---------------------------------------------|
|-------------------------------------|---------------------------------------------|
|-------------------------------------|---------------------------------------------|
|
| +E E E E +E S S S S S S E E E E +E E E E
|-------------------------------------|---------------------------------------------|
|-------------------------------------|---------------------------------------------|
|-------------------------------------|---------------------------------------------|
|-(5)-5-----7----(7)-------0h=3p=0----|-----0-7S==5------3-------(3)-3---------5----|
|-(3)-0-----5----(5)-0h3------------3-|-------5S==3------1-------(1)-0---------3----|
|--------3----------------------------|----------------------------------3----------|


Q S E. S E. +E S S
|----------------20S=22------(22)S==20----|
|-20----20S22--------------------------18-|
|-----------------------------------------|
|-----------------------------------------|
|-----------------------------------------|
|-----------------------------------------|
|
| +E E E E +E S S S S S S
|-----------------------------------------|
|-----------------------------------------|
|-----------------------------------------|
|-(5)-5--------7-(7)-----------0h=3p=0----|
|-(3)-0--------5-(5)-----0h3------------3-|
|--------3--------------------------------|


~~
a Q +E S S a Q +E S S
|-20S22---(22)S20----20S22----(22)S20----|
|-----------------22------------------22-|
|----------------------------------------|
|----------------------------------------|
|----------------------------------------|
|----------------------------------------|
|
| E E E E +E E E E
|----------------------------------------|
|----------------------------------------|
|----------------------------------------|
|-----0-7S==5---3-------(3)-3-------5----|
|-------5S==3---1-------(1)-0-------3----|
|-------------------------------3--------|


|----3----|
a Q S S E Q S S E a Q Q Q E E Q
|-20S22----22S24S22-22------22S20------|-20S22S==24S==25S==24--22S20----|
|---------------------------------22---|--------------------------------|
|--------------------------------------|--------------------------------|
|--------------------------------------|--------------------------------|
|--------------------------------------|--------------------------------|
|--------------------------------------|--------------------------------|
|
| +E E E E +E S S S S S S E E E E +E E E E
|--------------------------------------|--------------------------------|
|--------------------------------------|--------------------------------|
|--------------------------------------|--------------------------------|
|----(5)-5--------7-(7)------0h=3p=0---|-----0-7S===5----3-(3)--3----5--|
|----(3)-0--------5-(5)-0h3----------3-|-------5S===3----1-(1)--0----3--|
|-----------3--------------------------|---------------------------3----|


~~~
E E E. S Q S S E
|-20S=24S20S==22-22------22S20------|
|------------------------------22---|
|-----------------------------------|
|-----------------------------------|
|-----------------------------------|
|-----------------------------------|
|
| +E E E E +E S S S S S S
|-----------------------------------|
|-----------------------------------|
|-----------------------------------|
|-(5)--5----7----(7)------0h=3p=0---|
|-(3)--0----5----(5)-0h3----------3-|
|---------3-------------------------|


~~~~~~~~~~~~~~~~~~~~~~~~~~~~~~~~~
S S S S S E. S S S S S S E
|-22----22----22-------22-----22----22----22S=|
|----22----22----22--------22----22----22-----|
|---------------------------------------------|
|---------------------------------------------|
|---------------------------------------------|
|---------------------------------------------|
|
| E E E E +E E E E
|---------------------------------------------|
|---------------------------------------------|
|---------------------------------------------|
|--0-----7S====5-----3-(3)-----3-----------5--|
|--------5S====3-----1-(1)-----0-----------3--|
|------------------------------------3--------|


~~~ ~~
H. +E. S Q. E +Q. a E
|-29----------------(29)S====27-|-29S====27-(27)-----27S29-|
|-------------------------------|--------------------------|
|-------------------------------|--------------------------|
|-------------------------------|--------------------------|
|-------------------------------|--------------------------|
|-------------------------------|--------------------------|
|
| +E E E E +E S S S S S S E E E E +E E E E
|-------------------------------|--------------------------|
|-------------------------------|--------------------------|
|-------------------------------|--------------------------|
|-(5)-5---7-(7)-------0h=3p0----|--0-7S5--3--(3)-3-------5-|
|-(3)-0---5-(5)-0h3-----------3-|----5S3--1--(1)-0-------3-|
|-------3-----------------------|------------------3-------|


a +Q. E Q E E
|-29b31==(29)-----29-29\----------------|
|--------------------------------/20----|
|---------------------------------------|
|---------------------------------------|
|---------------------------------------|
|---------------------------------------|
|
| +E E E E +E S S S S S S
|---------------------------------------|
|---------------------------------------|
|---------------------------------------|
|---------(5)-5----7-(7)-----0h3p==0----|
|---------(3)-0----5-(5)-0h3---------3--|
|---------------3-----------------------|


~~
Q S E S a Q E E +W +W
|-20-----------------------------|-------------|---------||
|------20S18------18S20----20S22-|-(22)--------|-(22)----||
|--------------19----------------|-------------|---------||
|--------------------------------|-------------|---------||
|--------------------------------|-------------|---------||
|--------------------------------|-------------|---------||
|
| E E E E +E E E E +W W
|--------------------------------|-------------|---------||
|--------------------------------|-------------|---3-----||
|--------------------------------|-------------|---2-----||
|--0-7S=5----3-------(3)-3-----5-|--(5)--------|---0-----||
|----5S=3----1-------(1)-0-----3-|--(3)--------|---------||
|---------------------------3----|-------------|---------||


Play Out
Gtr III (D G D G B D) - open G w/slide
Gtr IV (D G D G B D) - open G w/slide

Gtr III
Wx12 a Q. E Q. E Q. E +Q. E
|-------------||------------------------|-----------------------|
|-------------||-18s20----20-20------22-|--20----20-(20)-----20-|
|---PIANO-----||------------------------|-----------------------|
|-------------||------------------------|-----------------------|
|-------------||------------------------|-----------------------|
|-------------||------------------------|-----------------------|
|
| Gtr IV
| Wx12 a H. E E +H. Q
|-------------||------------------------|-----------------------|
|-------------||-18s20------------18-17-|-(17)------------------|
|-------------||------------------------|-----------------17----|
|-------------||------------------------|-----------------------|
|-------------||------------------------|-----------------------|
|-------------||------------------------|-----------------------|


E Q E Q +E E Q +E E Q Q
|------------------------------|-----------------------|
|--18S=20S=18--18------(18)S17-|-17--(17)S15-15S=13----|
|------------------------------|-----------------------|
|------------------------------|-----------------------|
|------------------------------|-----------------------|
|------------------------------|-----------------------|
|
| +E Q. +S E. +Q W
|------------------------------|-----------------------|
|------------------------------|-----------------------|
|-(17)S19-----(19)S21--(21)S===|=17--------------------|
|------------------------------|-----------------------|
|------------------------------|-----------------------|
|------------------------------|-----------------------|


E Q E Q. E E Q E E Q E
|-------------------|-------------------------|
|-13S15S=13-13------|-13S15S===13-13S18S===17-|
|-------------------|-------------------------|
|-------------------|-------------------------|
|-------------------|-------------------------|
|-------------------|-------------------------|
|
| W E E E E Q E E
|-------------------|-------------------------|
|-------------------|-------18S17-------------|
|-------------------|----17-------17-------17-|
|-------------------|-------------------17----|
|-------------------|-------------------------|
|-------------------|-------------------------|


H. E E E Q E E Q.
|-----------------|-----------------------|
|---------------5-|--6S5------6S=5--------|
|--17---------5---|--------5--------------|
|-----------------|-----------------------|
|-----------------|-----------------------|
|-----------------|-----------------------|
|
| +H Q Q Q. E E E E E
|------------10S==|=22----22-22S21--21S22-|
|-----------------|-----------------------|
|-(17)------------|-----------------------|
|-----------------|-----------------------|
|-----------------|-----------------------|
|-----------------|-----------------------|


a W E Q E H
|------------------|-----------------------|
|--6s=8------------|-----5S6S======5--5----|
|------------------|-----------------------|
|------------------|-----------------------|
|------------------|-----------------------|
|------------------|-----------------------|
|
| a H Q. E a Q +E E H
|-21s22----21------|-17s19---(19)S17-17----|
|------------------|-----------------------|
|------------------|-----------------------|
|------------------|-----------------------|
|------------------|-----------------------|
|------------------|-----------------------|


W E Q E E E E E
|----------------|--------------------------|
|----------------|-----5S6S======5----------|
|----------------|------------------7S5-5S7-|
|----------------|--------------------------|
|----------------|--------------------------|
|----------------|--------------------------|
|
| a H H a Q +E E H
|----------------|--------------------------|
|-17s18----17----|--------------------------|
|----------------|-17s19---(19)S17-17-------|
|----------------|--------------------------|
|----------------|--------------------------|
|----------------|--------------------------|


E Q. +Q E E a H. E E
|-------------------------|-------------------|
|-------------------------|-------------------|
|-----5S7-----(7)-----5S7-|--5s=7---------5S7-|
|-------------------------|-------------------|
|-------------------------|-------------------|
|-------------------------|-------------------|
|
| a H +E Q. a H H
|-------------------------|-------------------|
|-------------------------|-------------------|
|-17s19------(19)S21------|-21s22-----21S=====|
|-------------------------|-------------------|
|-------------------------|-------------------|
|-------------------------|-------------------|


H H Q E E H
|----------------------|---------10S=9S=7----|
|-----------------5----|---------------------|
|--5-------------------|---------------------|
|----------------------|---------------------|
|----------------------|---------------------|
|----------------------|---------------------|
|
| S E. +E E H +E E E E H
|----------------------|---------------------|
|----------------------|---------17S18-17----|
|-17S19--(19)S17-17----|-(17)-17-------------|
|----------------------|---------------------|
|----------------------|---------------------|
|----------------------|---------------------|


H Q Q a H H
|---------------------|------------------------|
|---------------------|------------------------|
|------------------7--|-5s10------------7------|
|---------------------|------------------------|
|---------------------|------------------------|
|---------------------|------------------------|
|
| a H +E E Q S E. +Q Q Q
|---------------------|------------------------|
|-17s20----(20)S22----|---17S18--(18)--17------|
|---------------------|--------------------17--|
|---------------------|------------------------|
|---------------------|------------------------|
|---------------------|------------------------|


a Q +E E H W W
|-------------------------|----------------|------------------|
|-------------------------|----------------|------------------|
|-4s==5-------(5)S4--4----|----------------|------------------|
|-------------------------|----------------|------------------|
|-------------------------|----------------|------------------|
|-------------------------|----------------|------------------|
|
| +S E. +Q H H. E E Q. +E H
|-------------------------|----------------|-22----(22)S19----|
|-------------------------|-------------17-|------------------|
|---(17)S19--(19)---16----|-17-------17----|------------------|
|-------------------------|----------------|------------------|
|-------------------------|----------------|------------------|
|-------------------------|----------------|------------------|


Gtr IV
E E +Q H S E. +Q H E E E E E E E E
|-------------------|--------------------|-------------------------|
|-17S19-(19)--17----|--------------------|-------------------------|
|-------------------|-17S19--(19)--17----|-16S17S16S17S16S17S16S17-|
|-------------------|--------------------|-------------------------|
|-------------------|--------------------|-------------------------|
|-------------------|--------------------|-------------------------|


Gtr III
|------3------| |--3---|
H Q Q Q a H +Q Q Q
|------------------------|-----------------------------|
|------------------------|-------------------------12--|
|--------------9S=====10-|-10s12-----------(12)-12-----|
|------------------------|-----------------------------|
|------------------------|-----------------------------|
|------------------------|-----------------------------|
|
| Gtr IV
| H S E. +Q S E. +Q H
|-22----20S22----(22)----|----22S24--(24)---26---------|
|------------------------|-----------------------------|
|------------------------|-----------------------------|
|------------------------|-----------------------------|
|------------------------|-----------------------------|
|------------------------|-----------------------------|


Q E E Q E E Q E E E E E E
|------------------------|------------------------|
|----13--13S15-15--15S20-|-20--20S22-22S20-20S22--|
|------------------------|------------------------|
|------------------------|------------------------|
|------------------------|------------------------|
|------------------------|------------------------|
|
| a H H H Q E E
|-26s27--------26--------|-24S=======22S===21-----|
|------------------------|------------------------|
|------------------------|------------------------|
|------------------------|------------------------|
|------------------------|------------------------|
|------------------------|------------------------|


|----3----|
Q. E Q. E E E E E Q Q Q H E E Q
|----------------------------|--------------------------|----------------------|
|----22-----20--20-----------|-18S17-18S17--------------|----------------------|
|-------------------------17-|-------------17-----17-17-|----17----17S19-19----|
|----------------------------|--------------------------|----------------------|
|----------------------------|--------------------------|----------------------|
|----------------------------|--------------------------|----------------------|
|
| a Q E E +E E E E E E E E E Q. a H E E E E
|-21s22S=21-17-(17)----------|--------------------------|----------------------|
|-------------------17----17-|-------17S18S17-----------|----------------------|
|----------------------17----|----17----------17--------|-17s19----21S19-19S17-|
|----------------------------|--------------------------|----------------------|
|----------------------------|--------------------------|----------------------|
|----------------------------|--------------------------|----------------------|


E E Q Q E E a Q. E H
|--------------------------|-----------------------|
|-15S17-17----13-----13S15-|-13s15----15-15--------|
|--------------------------|-----------------------|
|--------------------------|-----------------------|
|--------------------------|-----------------------|
|--------------------------|-----------------------|
|
| Q E E E Q. a Q. E E E Q
|--------------------------|-----------------------|
|-------17S18S17-----------|-17s20----20-20S18-18--|
|-17-------------17--------|-----------------------|
|--------------------------|-----------------------|
|--------------------------|-----------------------|
|--------------------------|-----------------------|


E Q E S E. +Q E E Q +H
|---------------------------|-----------------------|
|----15S17--17-17S15--(15)--|-13S15S13--(13)--------|
|---------------------------|-----------------------|
|---------------------------|-----------------------|
|---------------------------|-----------------------|
|---------------------------|-----------------------|
|
| a Q. E H H. E E
|---------------------------|-----------------------|
|-18s20-----20S23S==========|=20--------------20-20-|
|---------------------------|-----------------------|
|---------------------------|-----------------------|
|---------------------------|-----------------------|
|---------------------------|-----------------------|


W a Q Q +E E Q
|------------------------|-------------------------|
|------------------------|--------------------3----|
|------------------------|-2s=5---5----(5)--5------|
|------------------------|-------------------------|
|------------------------|-------------------------|
|------------------------|-------------------------|
|
| E E E E E E E E Q. Q Q E
|-22S21------------------|-------------------------|
|-------20S18-17---------|-------------------------|
|----------------17-17---|---17------------17---16-|
|------------------------|----------17-------------|
|------------------------|-------------------------|
|------------------------|-------------------------|


SoundOfDreams
 
Messaggi: 12638
Località: Villa Literno (Caserta)

Messaggiodi SoundOfDreams

il code nn me funziona


SoundOfDreams
 
Messaggi: 12638
Località: Villa Literno (Caserta)

Messaggiodi wladdo75

SoundOfDreams ha scritto:il code nn me funziona


Sound mi sembra che manchino 2 note...ma non saprei dirti dove.... :lol:

Ammazza che tab lunghissima, ma nemmeno per Sultan of swing
c'è una tab cosi......!!! :o


Consiglio chitarra elettrica + Amplificatore

Ho suonato 2 anni al conservatorio... ma non mi hanno mai aperto!!
wladdo75
 
Messaggi: 5830
Località: TORINO

Messaggiodi C.r.A.z.Y

layla è la mia canzone preferita...la imparerò qualche notte che non lavoro..


Un giorno anche le tenebre, il dolore, le guerre e la morte si inchineranno davanti al suono di una chitarra....
C.r.A.z.Y
 
Messaggi: 172
Località: sulle nuvole

Messaggiodi dolciste

bellissima


Nella vita non contano i respiri, ma i momenti che ti hanno tolto il respiro. (X Tritologol è di Carlin)

Idee articoli regalo per chitarristi - A forma di chitarra!
dolciste
 
Messaggi: 2023

Re: Eric Clapton - Layla

Messaggiodi Velor

stupenda

(Si mi capita di riesumare vecchi topic, ma l'arte chiama :-DD )


Il mio gruppo è quasi pronto....! Mi servono solo un chitarrista, un bassista, un batterista, un tastierista, e un cantante XD
Velor
 
Messaggi: 205

Re: Eric Clapton - Layla

Messaggiodi Guit'EmAll

:-DD


Guit'EmAll
 
Messaggi: 10366
Località: VI PIACEREBBE SAPERLO, EH??? :D

Re: Eric Clapton - Layla

Messaggiodi melosky

versione unplugged senza assoli ( nn li imparero mai.... nn riesco a memorizzarli :-(


melosky
 
Messaggi: 90
Località: COMO

Re: Eric Clapton - Layla

Messaggiodi Alex87

Melosky, è ora di abbandonare la spiaggia... meriti ben altri palchi!! ;)


"una chitarra conta sempre più di una spada
anche se c’è chi non la pensa così…"
Alex87
 
Messaggi: 320

Re: Eric Clapton - Layla

Messaggiodi melosky

Si certo.. dalla spiaggia alle grigliate :P ahahah
ma figurati...!!


melosky
 
Messaggi: 90
Località: COMO

Re: Eric Clapton - Layla

Messaggiodi Dufresne

melosky ha scritto:
versione unplugged senza assoli ( nn li imparero mai.... nn riesco a memorizzarli :-(


Bella voce... anche se aiutata dal reverbero :-DD

anch'io ho gli stessi problemi con gli assoli :-OO ...non li ricordo mai

nel complesso bravo, in alcuni passaggi manca ancora un pò di scioltezza, ma direi che sei sulla buona strada... insisti! 8_)


Dufresne
 
Messaggi: 6160



Torna a Accordi TAB Riff testo chords - Studiare canzoni


Chi c’è in linea

Visitano il forum: Nessuno e 11 ospiti