Certe Notti - Ligabue

Hai trovato gli accordi chords di una canzone ad orecchio e vorresti suggerirla? Oppure vuoi proporre la TAB per chitarra del tuo Riff preferito? il testo? Questo è il forum giusto! Anche per suggerimenti sul ritmo di una canzone. Ricordati di usare la funzione cerca...

Certe Notti - Ligabue

Messaggiodi fede0405



Ho fatto una ricerca e mi pare non ci siano...potreste postare gli accordi di certe notti? grazie


fede0405
 
Messaggi: 120
Località: Palermo


Messaggiodi Francus

Ciao fede0405.....................eccoti qui la tab di certe notti del mitico liga!!!!!!!!!!!!!!!!!! Ci sono accordi, tab dell intro e dell assolo( in varie versioni!) e volendo anche 1 piccola tab di basso!!!!!!!!!!!!!!
Codice: Seleziona tutto
CERTE NOTTI-------Ligabue
NOTA: La TAB dovrebbe essere corretta al 99%, tranne forse le
posizioni; nel video del Night Express infatti *Capitan* Fede
suonava l'intro cosi':
   E                 A
e|----------------------------------------|
B|--5--------5----------------------------|
G|-----4--------4---------4---------4-----|
D|--------2--------2--1h2----2--1h2----2--|
A|----------------------------------------|
E|----------------------------------------|
io non ci riesco, comunque anche la mia versione dovrebbe suonare
bene.]
NOTA: per chi lo desiderasse io ho anche un file Guitar Pro della
canzone comprese alcune parti del basso.


     E                 A
e|--0--------0----------------------------|
B|-----0--------0---------0---------0-----|
G|----------------------------------------|
D|--------2--------2--1h2----2--1h2----2--|
A|----------------------------------------|
E|----------------------------------------|

  E                 A
--0--------0----------------------------|
-----0--------0---------0---------0-----|
----------------------------------------|
--------2--------2--1h2----2--1h2----2--|
----------------------------------------|
----------------------------------------|
                              Cer -te
  E                 A
--0--------0----------------------------|
-----0--------0---------0---------0-----|
----------------------------------------|
--------2--------2--1h2----2--1h2----2--|
----------------------------------------|
----------------------------------------|
Not- ti
  B        A         E
--0------------------0--------0--------|
-----0---------0--------0--------0-----|
---------------------------------------|
--------2--1h2----2--------2--------2--|
---------------------------------------|
---------------------------------------|

  C#m                 A
----------------------0--------0--------|
--4h5p0~----4h5p0~-------0--------0-----|
----------------------------------------|
----------------------------2--------2--|
----------------------------------------|
----------------------------------------|

  B
----------------------0--------0--------|
------0---------0--------0--------0-----|
----------------------------------------|
--1h2----2--1h2----2--------2--------2--|
----------------------------------------|
----------------------------------------|

  G#m               A
--------------------------------------|
-----4-----7--5--4-----4-----7--5--4--|
--4-----4-----------4-----4-----------|
--------------------------------------|
--------------------------------------|
--------------------------------------|

  C#m                 A
----------------------0--------0--------|
------0---------0--------0--------0-----|
----------------------------------------|
--1h2----2--1h2----2--------2--------2--|
----------------------------------------|
----------------------------------------|

  G#m               A
--------------------0--------0--------|
--5p4p0----5p4p0-------0--------0-----|
--------------------------------------|
--------------------------2--------2--|
--------------------------------------|
--------------------------------------|

  B         A        E
------------0----------------------------|
------0--------0---------0---------0-----|
-----------------------------------------|
--1h2----2--------2--1h2----2--1h2----2--|
-----------------------------------------|
-----------------------------------------|

  D
--2--0-----2--0-----2--------2--------|
--3-----3--------3--3--3--------3-----|
--2-----------------2-----2--------2--|
--------------------------------------|
--------------------------------------|
--------------------------------------|

--2--0-----2--0-----2--------2--------|
--3-----3--------3--3--3--------3-----|
--2-----------------2-----2--------2--|
--------------------------------------|
--------------------------------------|
--------------------------------------|

[seconda strofa]

  E            A               B      A      E
--0------------5------------|--7------5------0------------|
--0------------5------------|--7------5------0------------|
--1------------6------------|--8------6------1------------|
--2------------7------------|--9------7------2------------|
--2------------7------------|--9------7------2------------|
--0------------5------------|--7------5------0------------|

  C#m                 A
----------------------0--------0--------|
--4h5p0~----4h5p0~-------0--------0-----|
----------------------------------------|
----------------------------2--------2--|
----------------------------------------|
----------------------------------------|

  B
----------------------0--------0--------|
------0---------0--------0--------0-----|
----------------------------------------|
--1h2----2--1h2----2--------2--------2--|
----------------------------------------|
----------------------------------------|

  G#m               A
--------------------------------------|
-----4-----7--5--4-----4-----7--5--4--|
--4-----4-----------4-----4-----------|
--------------------------------------|
--------------------------------------|
--------------------------------------|

  C#m                 A
----------------------0--------0--------|
------0---------0--------0--------0-----|
----------------------------------------|
--1h2----2--1h2----2--------2--------2--|
----------------------------------------|
----------------------------------------|

  G#m               A
--------------------0--------0--------|
--5p4p0----5p4p0-------0--------0-----|
--------------------------------------|
--------------------------2--------2--|
--------------------------------------|
--------------------------------------|

  B         A        E
------------0----------------------------|
------0--------0---------0---------0-----|
-----------------------------------------|
--1h2----2--------2--1h2----2--1h2----2--|
-----------------------------------------|
-----------------------------------------|

  C#m               B
--------------------------------------|
-----------5-----------------7--------|
--------6-----6-----------8-----8-----|
-----6-----------6-----9-----------9--|
--4-----------------9-----------------|
--------------------------------------|

  A                 E
--------------------------------------|
-----------5-----------------0--------|
--------6-----6-----------1-----1-----|
-----7-----------7-----2-----------2--|
--7-----------------2-----------------|
--------------------------------------|

  A                 B
--------------------------------------|
-----------5-----------------7--------|
--------6-----6-----------8-----8-----|
-----7-----------7-----9-----------9--|
--7-----------------9-----------------|
--------------------------------------|

  A                 E
--------------------------------------|
-----------5-----------------0--------|
--------6-----6-----------1-----1-----|
-----7-----------7-----2-----------2--|
--7-----------------2-----------------|
--------------------------------------|

  A                 B
--------------------------------------|
-----------5-----------------7--------|
--------6-----6-----------8-----8-----|
-----7-----------7-----9-----------9--|
--7-----------------9-----------------|
--------------------------------------|

  F#m      E        A
--------------------------------------|
-----------------------------5--------|
--------2--------1--------6-----6-----|
-----4--------2--------7-----------7--|
--4--------2--------7-----------------|
--------------------------------------|

  A                 B
--------------------------------------|
-----------5-----------------7--------|
--------6-----6-----------8-----8-----|
-----7-----------7-----9-----------9--|
--7-----------------9-----------------|
--------------------------------------|

  D
--14--12------14--12------14----------14----------|
----------15----------15------15----------15------|
----------------------------------14----------14--|
--------------------------------------------------|
--------------------------------------------------|
--------------------------------------------------|

  D
--14--12------14--12------14----------14----------|
----------15----------15------15----------15------|
----------------------------------14----------14--|
--------------------------------------------------|
--------------------------------------------------|
--------------------------------------------------|

[si alza di un'ottava ma il riff e' lo stesso]

  E                     A
--12---------12-------------7---------7-----|
------12---------12-------------------------|
----------9----------9--8h9----9--8h9----9--|
--------------------------------------------|
--------------------------------------------|
--------------------------------------------|

  B          A         E
--12-------------7-----12---------12---------|
------12-------------------12---------12-----|
----------9--8h9----9----------9----------9--|
---------------------------------------------|
---------------------------------------------|
---------------------------------------------|

  C#m                 A
----------------------12---------12---------|
--4h5p0~----4h5p0~--------12---------12-----|
------------------------------9----------9--|
--------------------------------------------|
--------------------------------------------|
--------------------------------------------|

  B
------7---------7-----12---------12---------|
--------------------------12---------12-----|
--8h9----9--8h9----9----------9----------9--|
--------------------------------------------|
--------------------------------------------|
--------------------------------------------|

  G#m                     A
------11------14--12--11------11------14--12--11--|
--12------12--------------12------12--------------|
--------------------------------------------------|
--------------------------------------------------|
--------------------------------------------------|
--------------------------------------------------|

  C#m                 A
------7---------7-----12---------12---------|
--------------------------12---------12-----|
--8h9----9--8h9----9----------9----------9--|
--------------------------------------------|
--------------------------------------------|
--------------------------------------------|

  G#m               A
--------------------12---------12---------|
--5p4p0----5p4p0--------12---------12-----|
----------------------------9----------9--|
------------------------------------------|
------------------------------------------|
------------------------------------------|

  B         A          E
------7-----12-------------7---------7-----|
----------------12-------------------------|
--8h9----9----------9--8h9----9--8-9----9--|
-------------------------------------------|
-------------------------------------------|
-------------------------------------------|

  C#m               B
--------------------------------------|
-----------5-----------------7--------|
--------6-----6-----------8-----8-----|
-----6-----------6-----9-----------9--|
--4-----------------9-----------------|
--------------------------------------|

  A                 E
--------------------------------------|
-----------5-----------------0--------|
--------6-----6-----------1-----1-----|
-----7-----------7-----2-----------2--|
--7-----------------2-----------------|
--------------------------------------|

  A                 B
--------------------------------------|
-----------5-----------------7--------|
--------6-----6-----------8-----8-----|
-----7-----------7-----9-----------9--|
--7-----------------9-----------------|
--------------------------------------|

  A                 E
--------------------------------------|
-----------5-----------------0--------|
--------6-----6-----------1-----1-----|
-----7-----------7-----2-----------2--|
--7-----------------2-----------------|
--------------------------------------|

  A                 B
--------------------------------------|
-----------5-----------------7--------|
--------6-----6-----------8-----8-----|
-----7-----------7-----9-----------9--|
--7-----------------9-----------------|
--------------------------------------|

  F#m      E        A
--------------------------------------|
-----------------------------5--------|
--------2--------1--------6-----6-----|
-----4--------2--------7-----------7--|
--4--------2--------7-----------------|
--------------------------------------|

  A                 B
--------------------------------------|
-----------5-----------------7--------|
--------6-----6-----------8-----8-----|
-----7-----------7-----9-----------9--|
--7-----------------9-----------------|
--------------------------------------|

  D
--14--12------14--12------14----------14----------|
----------15----------15------15----------15------|
----------------------------------14----------14--|
--------------------------------------------------|
--------------------------------------------------|
--------------------------------------------------|

  D
--14--12------14--12------14----------14----------|
----------15----------15------15----------15------|
----------------------------------14----------14--|
--------------------------------------------------|
--------------------------------------------------|
--------------------------------------------------|

[solo]
NB: inizia sulla fine della battuta precedente.
------------------------------|
------------------------------|
----------------------13--14--|
------------------------------|
------------------------------|
------------------------------|

------------------------------------------|
--17----17r---12--14--14----14\-----------|
------------------------------------------|
----------------------------------18p-16--|
------------------------------------------|
------------------------------------------|

--------------------------------------------12--|
------------------------------------------------|
---------------------------------9--11/-13------|
--14--16------14--16r-14--9--11-----------------|
----------16------------------------------------|
------------------------------------------------|

-----------------------------------------------------|
--14~-12r-12-----12r-12r------9--------12--------14--|
------11r-11--9--11r-12r-----------------------------|
-------------------------9h11----11/13-----13/14-----|
-----------------------------------------------------|
-----------------------------------------------------|

------------------------------------|
------------------------------------|
------13h14p13----------------------|
--14------------14------------------|
------------------------------------|
------------------------------------|
[fine solo]

--------------------------|--------------------------|
--------------------------|--------------------------|
--- queste sono le battute della parte principale ---|
----------- lasciate vuote durante il solo ----------|
--------------------------|--------------------------|
--------------------------|--------------------------|

--------------------------|--------------------------|
--------------------------|--------------------------|
--------------------------|--------------------------|
--------------------------|--------------------------|
--------------------------|--------------------------|
--------------------------|--------------------------|

  C#m               B
--------------------------------------|
-----------5-----------------7--------|
--------6-----6-----------8-----8-----|
-----6-----------6-----9-----------9--|
--4-----------------9-----------------|
--------------------------------------|

  A                 E
--------------------------------------|
-----------5-----------------0--------|
--------6-----6-----------1-----1-----|
-----7-----------7-----2-----------2--|
--7-----------------2-----------------|
--------------------------------------|

  A                 B
--------------------------------------|
-----------5-----------------7--------|
--------6-----6-----------8-----8-----|
-----7-----------7-----9-----------9--|
--7-----------------9-----------------|
--------------------------------------|

  A                 E
--------------------------------------|
-----------5-----------------0--------|
--------6-----6-----------1-----1-----|
-----7-----------7-----2-----------2--|
--7-----------------2-----------------|
--------------------------------------|

  A                 B
--------------------------------------|
-----------5-----------------7--------|
--------6-----6-----------8-----8-----|
-----7-----------7-----9-----------9--|
--7-----------------9-----------------|
--------------------------------------|

  F#m      E        A
--------------------------------------|
-----------------------------5--------|
--------2--------1--------6-----6-----|
-----4--------2--------7-----------7--|
--4--------2--------7-----------------|
--------------------------------------|

  A                 B
--------------------------------------|
-----------5-----------------7--------|
--------6-----6-----------8-----8-----|
-----7-----------7-----9-----------9--|
--7-----------------9-----------------|
--------------------------------------|

  D
--14--12------14--12------14----------14----------|
----------15----------15------15----------15------|
----------------------------------14----------14--|
--------------------------------------------------|
--------------------------------------------------|
--------------------------------------------------|

  D
--14--12------14--12------14----------14----------|
----------15----------15------15----------15------|
----------------------------------14----------14--|
--------------------------------------------------|
--------------------------------------------------|
--------------------------------------------------|
  E
--0------------------------|
--0------------------------|
--1------------------------|
--2------------------------|
--2------------------------|
--0------------------------|



      E                    A
Certe notti la macchina e' calda
          B        A      E
e dove ti porta lo decide lei
      C#m                 A
Certe notti la strada non conta
               B
che quello che conta e' sentire che vai
      G#                 A
Certe notti la radio che passa Neil Young
        C#m             A
sembra avere capito chi sei
      E                     A
Certe notti somigliano a un vizio
                B         A        E    D D9 D D9  D
che tu non vuoi smettere, smettere mai.

      E                     A
Certe notti fai un po' di cagnara
            B       A         E
che sentano che non cambierai piu'
       C#m                  A
Quelle notti fra cosce e zanzare
             B
e nebbia e locali a cui dai del tu
      G#m                   A
Certe notti c'hai qualche ferita
                 C#m            A
che qualche tua amica disinfettera'
      E                     A
Certe notti coi bar che son chiusi
             B              A       E
al primo autogrill c'e' chi festeggera'.

C#m                   B
    E si puo' restare soli
A               E
    certe notti qui
A                  B
    che chi s'accontenta gode
A             E
    cosi' cosi'
E     A           B
Certe notti o sei sveglio
      F#m   E       A
o non sarai sveglio mai
              B              D D9 D D9  D
Ci vediamo da Mario prima o poi.

[solo hammond]

[qui mi pare che la TAB in sottofondo si alzi di un'ottava]

      E                A
Certe notti ti senti padrone
                B        A          E
di un posto che tanto di giorno non c'e'
      C#m               A
Certe notti se sei fortunato
           B
bussi alla porta di chi e' come te
        G#m                A
C'e' la notte che ti tiene fra le sue ...
       C#m                  A
un po' mamma un po' porca com'e'
       E                 A
Quelle notti da farci l'amore
              B         A         E
fin quando fa male, fin quando ce n'e'.


C#m                   B
    E si puo' restare soli
A               E
    certe notti qui
A                  B
    che se ti accontenti godi
A
    cosi' cosi'
E     A         B
Certe notti son notti
     F#m E       A
o le regaliamo a voi
              B             D D9 D D9  D
Tanto Mario riapre prima o poi.

Certe notti qui, certe notti qui,
D D9 D D9  D
certe notti qui, certe notti.

[intermezzo]

[solo chitarra]
[Parere personale: visto il video del Night Express
penso che la migliore trascrizione sia la prima fra quelle
che vedete qua sotto. Lascio lo stesso le altre perche'
penso che per qualcuno possano essere in posizioni piu'
facili (soprattutto se non avete un'elettrica sottomano)]

un grosso grazie a Giampaolo Molinari <giampa64@iol.it>,
autore della TAB seguente:

e---------12>14--12--------------------------------------
B-------------------------12-14-14^-14-------------------
G--13-14-------------------------------------------------
D----------------------------------------------16-14-16--
A--------------------------------------------------------
E--------------------------------------------------------

e--------------------------------------------------------
B----------------------------------------------14>17--14-
G-------------------------------------------12-----------
D--16-14----14--16>18-14-----------------14--------------
A--------16------------------------14-16-----------------
E--------------------------------------------------------

e--------------------------------------------------------
B--10>12-------12-12------------------------------12-----
G--11>13-11>9--13-13--------------13---------------------
D-------------------------------------------12/13----13--
A---------------------------14/15----15------------------
E--------------------------------------------------------

e------------------------------12~~~~~-------------------
B--------14----------------------------------------------
G-----------------------13/14----------------------------
D--13/14-----14------------------------------------------
A--------------------------------------------------------
E--------------------------------------------------------

ALTRA VERSIONE DEL SOLO:

-------|----------------|---------|----------------------
-------|-17^-17tr-12-14-|-14^-14\-|----------------------
-13-14-|----------------|---------|----------------------
-------|----------------|---------|-18p16-14-16----14-16^
-------|----------------|---------|-------------16-------
-------|----------------|---------|----------------------


----|--------------12-|---------------|---------|--------
----|-----------------|-14tr-12^-12---|-12^-12^-|------9-
----|------9-11/13----|------11^-11-9-|-11^-12^-|--------
-14-|-9-11------------|---------------|---------|-9h11---
----|-----------------|---------------|---------|--------
----|-----------------|---------------|---------|--------

----------|-------------------------|
-------12-|-------14----------------|
----------|-------------13h14p13----|
-11/13----|-13/14----14----------14-|
----------|-------------------------|
----------|-------------------------|

[... ancora un'altra versione di Alessandro Martino
<indigod2@club-internet.fr>. Personalmente non la ritengo
migliore delle altre, ma forse ha posizioni piu' facili]

---------12Bend-release----------------------------
--9--12--------------------12--14--14Bend-release--
---------------------------------------------------
---------------------------------------------------
---------------------------------------------------
---------------------------------------------------

----------------------------------------------
----------------------------------------------
--11p--9--11h------9--11--11Bend-release--11--
---------------11-----------------------------
----------------------------------------------
----------------------------------------------

--------------9--9---------------------------------
-----------9-----9---------------------------------
--------9-----------11--9--11Bend--11Bend-release--
-9--11---------------------------------------------
---------------------------------------------------
---------------------------------------------------

-------------------------------------12-------
-----------------------------12----------14---
--------9---------11--11/13------13---------13
--9/11-----11/13------------------------------
----------------------------------------------
----------------------------------------------


      G#m                   A
Certe notti sei solo piu' allegro,
                     G#m                  A
piu' ingordo, piu' ingenuo e coglione che puoi
       E                      A
Quelle notti son proprio quel vizio
               B         A        E
che non voglio smettere, smettere mai.


C#m                   B
    E si puo' restare soli
A               E
    certe notti qui
A                  B
    Che chi s'accontenta gode
A             E
    cosi' cosi'
E     A           B
Certe notti o sei sveglio
      F#m   E       A
o non sarai sveglio mai
              B              D D9 D D9  D
Ci vediamo da Mario prima o poi.
                               D D9 D D9  D
certe notti qui certe notti qui,
                  E
certe notti qui.

E ora il basso:

G|--------------------------|--------------------------|
D|--------------------------|--------------------------|
A|--------------------------|--------------------------|
E|--------------------------|--------------------------|
                                                  Certe
----------------------------|-----------------------------|
----------------------------|-----------------------------|
---------------0------------|--2------0-------------------|
--0-------------------------|----------------0------------|
  notti...
----------------------------|----------------------------|
----------------------------|----------------------------|
--4------------0------------|--2------------2------------|
----------------------------|----------------------------|

----------------------------|----------------------------|
----------------------------|----------------------------|
---------------0------------|--4------------0------------|
--4-------------------------|----------------------------|

----------------------------|-----------------------------|
----------------------------|-----------------------------|
---------------0------------|--2------0-------------------|
--0-------------------------|----------------0------------|
[intermezzo]
------------------------------|--------------------------------|
---------7------5------4------|--------------------------------|
--5---------------------------|--5------3------2---------------|
------------------------------|-----------------------5--3--0--|
poi la seconda strofa e' come la prima.
Manca la parte del ritornello
+-+-+-+-+-+-+-+-+-+-+-+-+-+-+-+-+-+-+-+-+-+-+-+-+-+-+-+-+-+-+-+-+-

X il ritmo: ti consiglio 1 pennata in giù ad ogni accordo.....come fa la chitarra elettrica di CAPITAN FEDE(se nn sbaglio).......cmq ascolta meglio l originale x sapere bene il ritmo!!!!!!!!!!!!!!!!!!!!!! Divertiti!!!!!!!! :P :P 8)


Vivi la vita giorno x giorno!!!!!!!!
Guitar is all my life!!!!
Hola amigos!!!!!!!!

IMPOSSIBLE IS NOTHING
Francus
 
Messaggi: 235
Località: Bologna

Messaggiodi Lennon

:o
ehm..x kaso hai postato le tab d "certe notti"?!?


L'energia della musica è il carburante dell'anima..
Lennon
 
Messaggi: 227
Località: Milano

Messaggiodi Francus

Si................................ :x :P :idea:


Vivi la vita giorno x giorno!!!!!!!!
Guitar is all my life!!!!
Hola amigos!!!!!!!!

IMPOSSIBLE IS NOTHING
Francus
 
Messaggi: 235
Località: Bologna

Messaggiodi Rocky Balboa

per chi lo desiderasse io ho anche un file Guitar Pro della
canzone comprese alcune parti del basso.
ciao francus potresti mandarmi il file guitar pro di certe notti? grazie


nothin lasts forever even cold november rain
Rocky Balboa
 
Messaggi: 66
Località: teano

Messaggiodi Guit'EmAll

:-DD


Guit'EmAll
 
Messaggi: 10366
Località: VI PIACEREBBE SAPERLO, EH??? :D

Messaggiodi fede0405

Non riesco a trovare il ritmo!! :twisted:
potreste dirmi come lo fate voi??
grazie!


fede0405
 
Messaggi: 120
Località: Palermo

Messaggiodi Guit'EmAll

fede0405 ha scritto:Non riesco a trovare il ritmo!! :twisted:
potreste dirmi come lo fate voi??
grazie!


Francus ha scritto: E A
Certe notti la macchina e' calda
B A E
e dove ti porta lo decide lei



La canzone potrebbe essere in tempo 12/8. Potresti quindi fare dodici pennate alternate a battuta. Ti mostro l'inizio.


Accordo di "E":

Prima pennata discendente da 1/8 FORTE, seconda pennata ascendente da 1/8 PIANO, terza pennata discendente da 1/8 PIANO;

Quarta pennata ascendente da 1/8 MEDIO-FORTE, quinta pennata discendente da 1/8 PIANO, sesta pennata ascendente da 1/8 PIANO;

Accordo di "A":

Settima pennata discendente da 1/8 FORTE, ottava pennata ascendente da 1/8 PIANO, nona pennata discendente da 1/8 PIANO;

Decima pennata ascendente da 1/8 MEDIO-FORTE, undicesima pennata discendente da 1/8 PIANO, dodicesima pennata ascendente da 1/8 PIANO.

Accordo di "B":

Prima pennata discendente da 1/8 FORTE, seconda pennata ascendente da 1/8 PIANO, terza pennata discendente da 1/8 PIANO;

Accordo di "A":

Quarta pennata ascendente da 1/8 MEDIO-FORTE, quinta pennata discendente da 1/8 PIANO, sesta pennata ascendente da 1/8 PIANO;

Accordo di "E":

Settima pennata discendente da 1/8 FORTE, ottava pennata ascendente da 1/8 PIANO, nona pennata discendente da 1/8 PIANO;

Decima pennata ascendente da 1/8 MEDIO-FORTE, undicesima pennata discendente da 1/8 PIANO, dodicesima pennata ascendente da 1/8 PIANO.


E così via...... :wink:


Guit'EmAll
 
Messaggi: 10366
Località: VI PIACEREBBE SAPERLO, EH??? :D

Messaggiodi dolciste




Nella vita non contano i respiri, ma i momenti che ti hanno tolto il respiro. (X Tritologol è di Carlin)

Idee articoli regalo per chitarristi - A forma di chitarra!
dolciste
 
Messaggi: 2023

Messaggiodi Jurimbert

Il ritmo come lo fate?...intendo descrivendolo cosi: GG GSGG----GGSSGS

oppure GGSGS


Jurimbert
 
Messaggi: 144
Località: Cervinia

Messaggiodi Alex_decuba

Raga scusate l'ignoranza ma che note sono D D9 D D9?


Alex_decuba
 
Messaggi: 20

Messaggiodi Mauro80

corrispondono a RE e RE9

RE XX0232

RE9 XX0230


Mauro80
 
Messaggi: 7933
Località: TO

Messaggiodi Alex_decuba

Mauro80 ha scritto:corrispondono a RE e RE9

RE XX0232

RE9 XX0230


grazie :wink:


Alex_decuba
 
Messaggi: 20

Messaggiodi Mauro80

Preghe! :)


Mauro80
 
Messaggi: 7933
Località: TO

Messaggiodi Mauro80

Video dedicato ad Andrechallant... mi raccomando l'ho fatto apposta per te, studia!!! :wink:

Fra poco edito il post con la tablatura. Brano di riferimento è la versione acustica presente nel dvd2 del nome e cognome tour, girato al MazdaPalace di Torino.




EDIT ecco la tablatura fresca fresca...

Codice: Seleziona tutto
CERTE NOTTI TAB BY MAURO80 (SOLO ACUSTICO)

Legenda

h = hammer-on
p = pull-off
/\ = slide
v = vibrato

e------------------------------------------------------------------------------
B-----5/7-5-------------------------------------------------5----8hbr---7/9-7vv
G------------4-6-6/7-6------------------------------------4---6-------9--------
D-6-7--------------------4p2-4---2-4-4/6-2vvv-------2-4/6----------------------
A------------------------------4----------------2h4----------------------------
E------------------------------------------------------------------------------


e------------------------------------------------------------------------------
B-------------------12----------14----14-12----12vvvvvv------------------------
G-------13----------------------------------------------14vvvvv-13vvvvv--------
D-------------12/13----13-13/14----14-------14--------------------------14vv\\\
A-13/14----14------------------------------------------------------------------
E------------------------------------------------------------------------------


Come al solito, l'invito è di provarla e dirmi che ne pensate, vedete anche se secondo voi ci sono eventuali correzioni da fare :wink:

Cerea ne :)
Ultima modifica di Mauro80 su , modificato 1 volte in totale.


Mauro80
 
Messaggi: 7933
Località: TO

Prossimo


Torna a Accordi TAB Riff testo chords - Studiare canzoni


Chi c’è in linea

Visitano il forum: Nessuno e 18 ospiti