Area didattica
Rubriche
Community
Varie e Utility


LE FOTO DEGLI ACCORDI

ACCORDI MAGGIORI DI SETTIMA

TORNA ALLA HOME

Gli accordi maggiori di settima


DO7 - C7
Do7

E0|-----|-----|-----|-----|
B |--1--|-----|-----|-----|
G |-----|-----|--4--|-----|
D |-----|--2--|-----|-----|
A |-----|-----|--3--|-----|
Ex|-----|-----|-----|-----|
RE7 - D7
RE 7

E |-----|--3--|-----|-----|
B |--1--|-----|-----|-----|
G |-----|--2--|-----|-----|
D0|-----|-----|-----|-----|
Ax|-----|-----|-----|-----|
Ex|-----|-----|-----|-----|

MI7 - E7
Mi settima

E0|-----|-----|-----|-----|
B0|-----|-----|-----|-----|
G |--1--|-----|-----|-----|
D0|-----|-----|-----|-----|
A |-----|--2--|-----|-----|
E0|-----|-----|-----|-----|

Fa7 - F7
FA7

E |--1--|-----|-----|-----|
B |--1--|-----|-----|-----|
G |-----|--2--|-----|-----|
D |--1--|-----|-----|-----|
A |-----|-----|--3--|-----|
E |--1--|-----|-----|-----|
SOL7 - G7
Sol 7

E |--1--|-----|-----|-----|
B0|-----|-----|-----|-----|
G0|-----|-----|-----|-----|
D0|-----|-----|-----|-----|
A |-----|--2--|-----|-----|
E |-----|-----|--3--|-----|

La7 - A7
Accordo la7

E0|-----|-----|-----|-----|
B |-----|--3--|-----|-----|
G0|-----|-----|-----|-----|
D |-----|--2--|-----|-----|
A0|-----|-----|-----|-----|
EX|-----|-----|-----|-----|
SI7 - B7
Accordo si7

E |-----|--4--|-----|-----|
B0|-----|-----|-----|-----|
G |-----|--3--|-----|-----|
D |--1--|-----|-----|-----|
A |-----|--2--|-----|-----|
Ex|-----|-----|-----|-----|

Foto dell'utente LesPaul



mappa sito

Sito ottimizzato ad una risoluzione di 1024x768.
© 2005 - Copyright Chitarra da spiaggia - Assolutamente vietata la riproduzione anche solo parziale dei contenuti
del sito se non attraverso esplicito consenso dell'autore